  0
SECTION
  2
HEADER
  9
$ACADVER
  1
AC1015
  9
$ACADMAINTVER
 70
     6
  9
$DWGCODEPAGE
  3
ANSI_1254
  9
$INSBASE
 10
0.0
 20
0.0
 30
0.0
  9
$EXTMIN
 10
0.0
 20
0.0
 30
0.0
  9
$EXTMAX
 10
279.4
 20
215.9
 30
0.0
  9
$LIMMIN
 10
0.0
 20
0.0
  9
$LIMMAX
 10
279.4
 20
215.9
  9
$ORTHOMODE
 70
     0
  9
$REGENMODE
 70
     1
  9
$FILLMODE
 70
     1
  9
$QTEXTMODE
 70
     0
  9
$MIRRTEXT
 70
     1
  9
$LTSCALE
 40
1.0
  9
$ATTMODE
 70
     1
  9
$TEXTSIZE
 40
3.5
  9
$TRACEWID
 40
1.0
  9
$TEXTSTYLE
  7
Standard
  9
$CLAYER
  8
0
  9
$CELTYPE
  6
ByLayer
  9
$CECOLOR
 62
   256
  9
$CELTSCALE
 40
1.0
  9
$DISPSILH
 70
     0
  9
$DIMSCALE
 40
1.0
  9
$DIMASZ
 40
3.5
  9
$DIMEXO
 40
1.0
  9
$DIMDLI
 40
3.75
  9
$DIMRND
 40
0.0
  9
$DIMDLE
 40
0.0
  9
$DIMEXE
 40
1.0
  9
$DIMTP
 40
0.0
  9
$DIMTM
 40
0.0
  9
$DIMTXT
 40
2.8222222222
  9
$DIMCEN
 40
2.5
  9
$DIMTSZ
 40
0.0
  9
$DIMTOL
 70
     0
  9
$DIMLIM
 70
     0
  9
$DIMTIH
 70
     1
  9
$DIMTOH
 70
     1
  9
$DIMSE1
 70
     0
  9
$DIMSE2
 70
     0
  9
$DIMTAD
 70
     1
  9
$DIMZIN
 70
     0
  9
$DIMBLK
  1

  9
$DIMASO
 70
     1
  9
$DIMSHO
 70
     1
  9
$DIMPOST
  1

  9
$DIMAPOST
  1

  9
$DIMALT
 70
     0
  9
$DIMALTD
 70
     3
  9
$DIMALTF
 40
0.0393700787
  9
$DIMLFAC
 40
1.0
  9
$DIMTOFL
 70
     1
  9
$DIMTVP
 40
0.0
  9
$DIMTIX
 70
     0
  9
$DIMSOXD
 70
     0
  9
$DIMSAH
 70
     0
  9
$DIMBLK1
  1

  9
$DIMBLK2
  1

  9
$DIMSTYLE
  2
ISO-25
  9
$DIMCLRD
 70
     0
  9
$DIMCLRE
 70
     0
  9
$DIMCLRT
 70
     0
  9
$DIMTFAC
 40
1.0
  9
$DIMGAP
 40
1.524
  9
$DIMJUST
 70
     0
  9
$DIMSD1
 70
     0
  9
$DIMSD2
 70
     0
  9
$DIMTOLJ
 70
     0
  9
$DIMTZIN
 70
     0
  9
$DIMALTZ
 70
     0
  9
$DIMALTTZ
 70
     0
  9
$DIMUPT
 70
     0
  9
$DIMDEC
 70
     2
  9
$DIMTDEC
 70
     2
  9
$DIMALTU
 70
     2
  9
$DIMALTTD
 70
     3
  9
$DIMTXSTY
  7
Standard
  9
$DIMAUNIT
 70
     0
  9
$DIMADEC
 70
     2
  9
$DIMALTRND
 40
0.0
  9
$DIMAZIN
 70
     0
  9
$DIMDSEP
 70
    44
  9
$DIMATFIT
 70
     3
  9
$DIMFRAC
 70
     0
  9
$DIMLDRBLK
  1

  9
$DIMLUNIT
 70
     2
  9
$DIMLWD
 70
    -2
  9
$DIMLWE
 70
    -2
  9
$DIMTMOVE
 70
     0
  9
$LUNITS
 70
     2
  9
$LUPREC
 70
     2
  9
$SKETCHINC
 40
1.0
  9
$FILLETRAD
 40
10.0
  9
$AUNITS
 70
     0
  9
$AUPREC
 70
     2
  9
$MENU
  1
.
  9
$ELEVATION
 40
0.0
  9
$PELEVATION
 40
0.0
  9
$THICKNESS
 40
0.0
  9
$LIMCHECK
 70
     0
  9
$CHAMFERA
 40
0.0
  9
$CHAMFERB
 40
0.0
  9
$CHAMFERC
 40
0.0
  9
$CHAMFERD
 40
0.0
  9
$SKPOLY
 70
     0
  9
$TDCREATE
 40
2460745.646895509
  9
$TDUCREATE
 40
2460745.521895509
  9
$TDUPDATE
 40
2460745.646895798
  9
$TDUUPDATE
 40
2460745.521895798
  9
$TDINDWG
 40
0.0000000116
  9
$TDUSRTIMER
 40
0.0000000116
  9
$USRTIMER
 70
     1
  9
$ANGBASE
 50
0.0
  9
$ANGDIR
 70
     0
  9
$PDMODE
 70
     0
  9
$PDSIZE
 40
-1.0
  9
$PLINEWID
 40
0.0
  9
$SPLFRAME
 70
     0
  9
$SPLINETYPE
 70
     6
  9
$SPLINESEGS
 70
     8
  9
$HANDSEED
  5
129
  9
$SURFTAB1
 70
     6
  9
$SURFTAB2
 70
     6
  9
$SURFTYPE
 70
     6
  9
$SURFU
 70
     6
  9
$SURFV
 70
     6
  9
$UCSBASE
  2

  9
$UCSNAME
  2

  9
$UCSORG
 10
0.0
 20
0.0
 30
0.0
  9
$UCSXDIR
 10
1.0
 20
0.0
 30
0.0
  9
$UCSYDIR
 10
0.0
 20
1.0
 30
0.0
  9
$UCSORTHOREF
  2

  9
$UCSORTHOVIEW
 70
     0
  9
$UCSORGTOP
 10
0.0
 20
0.0
 30
0.0
  9
$UCSORGBOTTOM
 10
0.0
 20
0.0
 30
0.0
  9
$UCSORGLEFT
 10
0.0
 20
0.0
 30
0.0
  9
$UCSORGRIGHT
 10
0.0
 20
0.0
 30
0.0
  9
$UCSORGFRONT
 10
0.0
 20
0.0
 30
0.0
  9
$UCSORGBACK
 10
0.0
 20
0.0
 30
0.0
  9
$PUCSBASE
  2

  9
$PUCSNAME
  2

  9
$PUCSORG
 10
0.0
 20
0.0
 30
0.0
  9
$PUCSXDIR
 10
1.0
 20
0.0
 30
0.0
  9
$PUCSYDIR
 10
0.0
 20
1.0
 30
0.0
  9
$PUCSORTHOREF
  2

  9
$PUCSORTHOVIEW
 70
     0
  9
$PUCSORGTOP
 10
0.0
 20
0.0
 30
0.0
  9
$PUCSORGBOTTOM
 10
0.0
 20
0.0
 30
0.0
  9
$PUCSORGLEFT
 10
0.0
 20
0.0
 30
0.0
  9
$PUCSORGRIGHT
 10
0.0
 20
0.0
 30
0.0
  9
$PUCSORGFRONT
 10
0.0
 20
0.0
 30
0.0
  9
$PUCSORGBACK
 10
0.0
 20
0.0
 30
0.0
  9
$USERI1
 70
     0
  9
$USERI2
 70
     0
  9
$USERI3
 70
     0
  9
$USERI4
 70
     0
  9
$USERI5
 70
     0
  9
$USERR1
 40
0.0
  9
$USERR2
 40
0.0
  9
$USERR3
 40
0.0
  9
$USERR4
 40
0.0
  9
$USERR5
 40
0.0
  9
$WORLDVIEW
 70
     1
  9
$SHADEDGE
 70
     3
  9
$SHADEDIF
 70
    70
  9
$TILEMODE
 70
     1
  9
$MAXACTVP
 70
    64
  9
$PINSBASE
 10
0.0
 20
0.0
 30
0.0
  9
$PLIMCHECK
 70
     0
  9
$PEXTMIN
 10
1.0000000000E+20
 20
1.0000000000E+20
 30
1.0000000000E+20
  9
$PEXTMAX
 10
-1.0000000000E+20
 20
-1.0000000000E+20
 30
-1.0000000000E+20
  9
$PLIMMIN
 10
0.0
 20
0.0
  9
$PLIMMAX
 10
420.0
 20
297.0
  9
$UNITMODE
 70
     0
  9
$VISRETAIN
 70
     1
  9
$PLINEGEN
 70
     0
  9
$PSLTSCALE
 70
     1
  9
$TREEDEPTH
 70
  3020
  9
$CMLSTYLE
  2
Standard
  9
$CMLJUST
 70
     0
  9
$CMLSCALE
 40
20.0
  9
$PROXYGRAPHICS
 70
     1
  9
$MEASUREMENT
 70
     1
  9
$CELWEIGHT
370
    -1
  9
$ENDCAPS
280
     0
  9
$JOINSTYLE
280
     0
  9
$LWDISPLAY
290
     1
  9
$INSUNITS
 70
     4
  9
$HYPERLINKBASE
  1

  9
$STYLESHEET
  1

  9
$XEDIT
290
     1
  9
$CEPSNTYPE
380
     0
  9
$PSTYLEMODE
290
     1
  9
$FINGERPRINTGUID
  2
{d3e4621d-ed2c-45ef-95fb-7b406f1213a2}
  9
$VERSIONGUID
  2
{FAEB1C32-E019-11D5-929B-00C0DF256EC4}
  9
$EXTNAMES
290
     1
  9
$PSVPSCALE
 40
0.0
  9
$OLESTARTUP
290
     0
  0
ENDSEC
  0
SECTION
  2
CLASSES
  0
CLASS
  1
ACDBDICTIONARYWDFLT
  2
AcDbDictionaryWithDefault
  3
ObjectDBX Classes
 90
        0
280
     0
281
     0
  0
CLASS
  1
VISUALSTYLE
  2
AcDbVisualStyle
  3
ObjectDBX Classes
 90
     4095
280
     0
281
     0
  0
CLASS
  1
MATERIAL
  2
AcDbMaterial
  3
ObjectDBX Classes
 90
     1153
280
     0
281
     0
  0
CLASS
  1
SCALE
  2
AcDbScale
  3
ObjectDBX Classes
 90
     1153
280
     0
281
     0
  0
CLASS
  1
TABLESTYLE
  2
AcDbTableStyle
  3
ObjectDBX Classes
 90
     4095
280
     0
281
     0
  0
CLASS
  1
MLEADERSTYLE
  2
AcDbMLeaderStyle
  3
ACDB_MLEADERSTYLE_CLASS
 90
     4095
280
     0
281
     0
  0
CLASS
  1
SUN
  2
AcDbSun
  3
SCENEOE
 90
     1153
280
     0
281
     0
  0
CLASS
  1
ACDBPLACEHOLDER
  2
AcDbPlaceHolder
  3
ObjectDBX Classes
 90
        0
280
     0
281
     0
  0
CLASS
  1
LAYOUT
  2
AcDbLayout
  3
ObjectDBX Classes
 90
        0
280
     0
281
     0
  0
ENDSEC
  0
SECTION
  2
TABLES
  0
TABLE
  2
VPORT
  5
8
330
0
100
AcDbSymbolTable
 70
     1
  0
VPORT
  5
29
330
8
100
AcDbSymbolTableRecord
100
AcDbViewportTableRecord
  2
*Active
 70
     0
 10
0.0
 20
0.0
 11
1.0
 21
1.0
 12
139.7
 22
107.95
 13
0.0
 23
0.0
 14
10.0
 24
10.0
 15
10.0
 25
10.0
 16
0.0
 26
0.0
 36
1.0
 17
0.0
 27
0.0
 37
0.0
 40
215.9
 41
1.2941176471
 42
50.0
 43
0.0
 44
0.0
 50
0.0
 51
0.0
 71
     0
 72
  2000
 73
     1
 74
     3
 75
     0
 76
     0
 77
     0
 78
     0
281
     0
 65
     1
110
0.0
120
0.0
130
0.0
111
1.0
121
0.0
131
0.0
112
0.0
122
1.0
132
0.0
 79
     0
146
0.0
  0
ENDTAB
  0
TABLE
  2
LTYPE
  5
5
330
0
100
AcDbSymbolTable
 70
     6
  0
LTYPE
  5
14
330
5
100
AcDbSymbolTableRecord
100
AcDbLinetypeTableRecord
  2
ByBlock
 70
     0
  3

 72
    65
 73
     0
 40
0.0
  0
LTYPE
  5
15
330
5
100
AcDbSymbolTableRecord
100
AcDbLinetypeTableRecord
  2
ByLayer
 70
     0
  3

 72
    65
 73
     0
 40
0.0
  0
LTYPE
  5
16
330
5
100
AcDbSymbolTableRecord
100
AcDbLinetypeTableRecord
  2
Continuous
 70
     0
  3
Solid line
 72
    65
 73
     0
 40
0.0
  0
LTYPE
  5
6E
330
5
100
AcDbSymbolTableRecord
100
AcDbLinetypeTableRecord
  2
HIDDEN
 70
     0
  3
Hidden __ __ __ __ __ __ __ __ __ __ __ __ __ __
 72
    65
 73
     2
 40
1.905
 49
1.27
 74
     0
 49
-0.635
 74
     0
  0
LTYPE
  5
6F
330
5
100
AcDbSymbolTableRecord
100
AcDbLinetypeTableRecord
  2
PHANTOM
 70
     0
  3
Phantom ______  __  __  ______  __  __  ______
 72
    65
 73
     6
 40
12.7
 49
6.35
 74
     0
 49
-1.27
 74
     0
 49
1.27
 74
     0
 49
-1.27
 74
     0
 49
1.27
 74
     0
 49
-1.27
 74
     0
  0
LTYPE
  5
70
330
5
100
AcDbSymbolTableRecord
100
AcDbLinetypeTableRecord
  2
CENTER
 70
     0
  3
Center ____ _ ____ _ ____ _ ____ _ ____ _ ____
 72
    65
 73
     4
 40
10.16
 49
6.35
 74
     0
 49
-1.27
 74
     0
 49
1.27
 74
     0
 49
-1.27
 74
     0
  0
LTYPE
  5
71
330
5
100
AcDbSymbolTableRecord
100
AcDbLinetypeTableRecord
  2
CENTERX2
 70
     0
  3
Center (2x) ________  __  ________  __  _____
 72
    65
 73
     4
 40
20.32
 49
12.7
 74
     0
 49
-2.54
 74
     0
 49
2.54
 74
     0
 49
-2.54
 74
     0
  0
LTYPE
  5
72
330
5
100
AcDbSymbolTableRecord
100
AcDbLinetypeTableRecord
  2
DOT2
 70
     0
  3
Dot (.5x) ........................................
 72
    65
 73
     2
 40
0.635
 49
0.0
 74
     0
 49
-0.635
 74
     0
  0
ENDTAB
  0
TABLE
  2
LAYER
  5
2
330
0
100
AcDbSymbolTable
 70
    17
  0
LAYER
  5
10
330
2
100
AcDbSymbolTableRecord
100
AcDbLayerTableRecord
  2
0
 70
     0
 62
     7
  6
Continuous
370
    -3
390
F
  0
LAYER
  5
73
330
2
100
AcDbSymbolTableRecord
100
AcDbLayerTableRecord
  2
FORMAT
 70
     0
 62
     7
  6
Continuous
370
    -3
390
F
  0
LAYER
  5
74
330
2
100
AcDbSymbolTableRecord
100
AcDbLayerTableRecord
  2
YARDIMCI_GEOMETRI
 70
     0
 62
    -6
  6
Continuous
290
     0
370
    -3
390
F
  0
LAYER
  5
75
330
2
100
AcDbSymbolTableRecord
100
AcDbLayerTableRecord
  2
SAYFA_CERCEVESI
 70
     0
 62
     7
  6
Continuous
370
    25
390
F
  0
LAYER
  5
76
330
2
100
AcDbSymbolTableRecord
100
AcDbLayerTableRecord
  2
ANTET
 70
     0
 62
     7
  6
Continuous
370
    -3
390
F
  0
LAYER
  5
77
330
2
100
AcDbSymbolTableRecord
100
AcDbLayerTableRecord
  2
OLCU
 70
     0
 62
   150
  6
Continuous
370
    -3
390
F
  0
LAYER
  5
78
330
2
100
AcDbSymbolTableRecord
100
AcDbLayerTableRecord
  2
METIN
 70
     0
 62
    96
  6
Continuous
370
    -3
390
F
  0
LAYER
  5
79
330
2
100
AcDbSymbolTableRecord
100
AcDbLayerTableRecord
  2
BALON
 70
     0
 62
     5
  6
Continuous
370
    -3
390
F
  0
LAYER
  5
7A
330
2
100
AcDbSymbolTableRecord
100
AcDbLayerTableRecord
  2
VURGU
 70
     0
 62
     7
  6
Continuous
370
    -3
390
F
  0
LAYER
  5
7B
330
2
100
AcDbSymbolTableRecord
100
AcDbLayerTableRecord
  2
SILIK
 70
     0
 62
     7
  6
Continuous
370
    -3
390
F
  0
LAYER
  5
7C
330
2
100
AcDbSymbolTableRecord
100
AcDbLayerTableRecord
  2
MODEL
 70
     0
 62
     7
  6
Continuous
370
    -3
390
F
  0
LAYER
  5
7D
330
2
100
AcDbSymbolTableRecord
100
AcDbLayerTableRecord
  2
DETAYLANDıRMA
 70
     0
 62
   190
  6
Continuous
370
    -3
390
F
  0
LAYER
  5
7E
330
2
100
AcDbSymbolTableRecord
100
AcDbLayerTableRecord
  2
TOLERANS
 70
     0
 62
   230
  6
Continuous
370
    -3
390
F
  0
LAYER
  5
7F
330
2
100
AcDbSymbolTableRecord
100
AcDbLayerTableRecord
  2
MERKEZ_CIZGILERI
 70
     0
 62
    30
  6
Continuous
370
    -3
390
F
  0
LAYER
  5
80
330
2
100
AcDbSymbolTableRecord
100
AcDbLayerTableRecord
  2
KESIT-DETAY_CIZGILERI
 70
     0
 62
     7
  6
Continuous
370
    -3
390
F
  0
LAYER
  5
81
330
2
100
AcDbSymbolTableRecord
100
AcDbLayerTableRecord
  2
\U+041E\U+0421\U+0415\U+0412\U+042B\U+0415
 70
     0
 62
     7
  6
Continuous
370
    -3
390
F
  0
LAYER
  5
82
330
2
100
AcDbSymbolTableRecord
100
AcDbLayerTableRecord
  2
\U+0412\U+041E\U+0414\U+042F\U+041D\U+042B\U+0415_\U+0417\U+041D\U+0410\U+041A\U+0418
 70
     0
 62
    11
  6
Continuous
370
    -3
390
F
  0
ENDTAB
  0
TABLE
  2
STYLE
  5
3
330
0
100
AcDbSymbolTable
 70
     1
  0
STYLE
  5
11
330
3
100
AcDbSymbolTableRecord
100
AcDbTextStyleTableRecord
  2
Standard
 70
     0
 40
0.0
 41
1.0
 50
0.0
 71
     0
 42
3.5
  3
txt
  4

  0
ENDTAB
  0
TABLE
  2
VIEW
  5
6
330
0
100
AcDbSymbolTable
 70
     0
  0
ENDTAB
  0
TABLE
  2
UCS
  5
7
330
0
100
AcDbSymbolTable
 70
     0
  0
ENDTAB
  0
TABLE
  2
APPID
  5
9
330
0
100
AcDbSymbolTable
 70
     1
  0
APPID
  5
12
330
9
100
AcDbSymbolTableRecord
100
AcDbRegAppTableRecord
  2
ACAD
 70
     0
  0
ENDTAB
  0
TABLE
  2
DIMSTYLE
  5
A
330
0
100
AcDbSymbolTable
 70
     1
100
AcDbDimStyleTable
  0
DIMSTYLE
105
27
330
A
100
AcDbSymbolTableRecord
100
AcDbDimStyleTableRecord
  2
ISO-25
 70
     0
 41
2.5
 42
0.625
 43
3.75
 44
1.25
 73
     0
 74
     0
 77
     1
 78
     8
140
2.5
141
2.5
143
0.0393700787
147
0.625
171
     3
172
     1
178
     0
271
     2
272
     2
274
     3
278
    44
283
     0
284
     8
340
11
  0
ENDTAB
  0
TABLE
  2
BLOCK_RECORD
  5
1
330
0
100
AcDbSymbolTable
 70
     3
  0
BLOCK_RECORD
  5
1F
330
1
100
AcDbSymbolTableRecord
100
AcDbBlockTableRecord
  2
*Model_Space
340
22
  0
BLOCK_RECORD
  5
1B
330
1
100
AcDbSymbolTableRecord
100
AcDbBlockTableRecord
  2
*Paper_Space
340
1E
  0
BLOCK_RECORD
  5
23
330
1
100
AcDbSymbolTableRecord
100
AcDbBlockTableRecord
  2
*Paper_Space0
340
26
  0
BLOCK_RECORD
  5
8C
330
1
100
AcDbSymbolTableRecord
100
AcDbBlockTableRecord
  2
SW_CENTERMARKSYMBOL_0
340
0
102
{BLKREFS
331
97
102
}
  0
BLOCK_RECORD
  5
108
330
1
100
AcDbSymbolTableRecord
100
AcDbBlockTableRecord
  2
SW_CENTERMARKSYMBOL_1
340
0
102
{BLKREFS
331
113
102
}
  0
ENDTAB
  0
ENDSEC
  0
SECTION
  2
BLOCKS
  0
BLOCK
  5
20
330
1F
100
AcDbEntity
  8
0
100
AcDbBlockBegin
  2
*Model_Space
 70
     0
 10
0.0
 20
0.0
 30
0.0
  3
*Model_Space
  1

  0
ENDBLK
  5
21
330
1F
100
AcDbEntity
  8
0
100
AcDbBlockEnd
  0
BLOCK
  5
1C
330
1B
100
AcDbEntity
 67
     1
  8
0
100
AcDbBlockBegin
  2
*Paper_Space
 70
     0
 10
0.0
 20
0.0
 30
0.0
  3
*Paper_Space
  1

  0
ENDBLK
  5
1D
330
1B
100
AcDbEntity
 67
     1
  8
0
100
AcDbBlockEnd
  0
BLOCK
  5
24
330
23
100
AcDbEntity
  8
0
100
AcDbBlockBegin
  2
*Paper_Space0
 70
     0
 10
0.0
 20
0.0
 30
0.0
  3
*Paper_Space0
  1

  0
ENDBLK
  5
25
330
23
100
AcDbEntity
  8
0
100
AcDbBlockEnd
  0
BLOCK
  5
8D
330
8C
100
AcDbEntity
  8
0
100
AcDbBlockBegin
  2
SW_CENTERMARKSYMBOL_0
 70
     0
 10
0.0
 20
0.0
 30
0.0
  3
SW_CENTERMARKSYMBOL_0
  1

  0
LINE
  5
8F
330
8C
100
AcDbEntity
  8
FORMAT
 62
     0
100
AcDbLine
 10
0.0
 20
0.0
 30
0.0
 11
0.0
 21
2.5
 31
0.0
  0
LINE
  5
90
330
8C
100
AcDbEntity
  8
FORMAT
 62
     0
100
AcDbLine
 10
0.0
 20
0.0
 30
0.0
 11
-2.5
 21
0.0
 31
0.0
  0
LINE
  5
91
330
8C
100
AcDbEntity
  8
FORMAT
 62
     0
100
AcDbLine
 10
0.0
 20
0.0
 30
0.0
 11
0.0
 21
-2.5
 31
0.0
  0
LINE
  5
92
330
8C
100
AcDbEntity
  8
FORMAT
 62
     0
100
AcDbLine
 10
0.0
 20
0.0
 30
0.0
 11
2.5
 21
0.0
 31
0.0
  0
LINE
  5
93
330
8C
100
AcDbEntity
  8
FORMAT
 62
     0
100
AcDbLine
 10
0.0
 20
5.0
 30
0.0
 11
0.0
 21
35.5
 31
0.0
  0
LINE
  5
94
330
8C
100
AcDbEntity
  8
FORMAT
 62
     0
100
AcDbLine
 10
-5.0
 20
0.0
 30
0.0
 11
-35.5
 21
0.0
 31
0.0
  0
LINE
  5
95
330
8C
100
AcDbEntity
  8
FORMAT
 62
     0
100
AcDbLine
 10
0.0
 20
-5.0
 30
0.0
 11
0.0
 21
-35.5
 31
0.0
  0
LINE
  5
96
330
8C
100
AcDbEntity
  8
FORMAT
 62
     0
100
AcDbLine
 10
5.0
 20
0.0
 30
0.0
 11
35.5
 21
0.0
 31
0.0
  0
ENDBLK
  5
8E
330
8C
100
AcDbEntity
  8
0
100
AcDbBlockEnd
  0
BLOCK
  5
109
330
108
100
AcDbEntity
  8
0
100
AcDbBlockBegin
  2
SW_CENTERMARKSYMBOL_1
 70
     0
 10
0.0
 20
0.0
 30
0.0
  3
SW_CENTERMARKSYMBOL_1
  1

  0
LINE
  5
10B
330
108
100
AcDbEntity
  8
FORMAT
 62
     0
100
AcDbLine
 10
0.0
 20
0.0
 30
0.0
 11
0.0
 21
2.5
 31
0.0
  0
LINE
  5
10C
330
108
100
AcDbEntity
  8
FORMAT
 62
     0
100
AcDbLine
 10
0.0
 20
0.0
 30
0.0
 11
-2.5
 21
0.0
 31
0.0
  0
LINE
  5
10D
330
108
100
AcDbEntity
  8
FORMAT
 62
     0
100
AcDbLine
 10
0.0
 20
0.0
 30
0.0
 11
0.0
 21
-2.5
 31
0.0
  0
LINE
  5
10E
330
108
100
AcDbEntity
  8
FORMAT
 62
     0
100
AcDbLine
 10
0.0
 20
0.0
 30
0.0
 11
2.5
 21
0.0
 31
0.0
  0
LINE
  5
10F
330
108
100
AcDbEntity
  8
FORMAT
 62
     0
100
AcDbLine
 10
0.0
 20
5.0
 30
0.0
 11
0.0
 21
7.25
 31
0.0
  0
LINE
  5
110
330
108
100
AcDbEntity
  8
FORMAT
 62
     0
100
AcDbLine
 10
-5.0
 20
0.0
 30
0.0
 11
-7.25
 21
0.0
 31
0.0
  0
LINE
  5
111
330
108
100
AcDbEntity
  8
FORMAT
 62
     0
100
AcDbLine
 10
0.0
 20
-5.0
 30
0.0
 11
0.0
 21
-7.25
 31
0.0
  0
LINE
  5
112
330
108
100
AcDbEntity
  8
FORMAT
 62
     0
100
AcDbLine
 10
5.0
 20
0.0
 30
0.0
 11
7.25
 21
0.0
 31
0.0
  0
ENDBLK
  5
10A
330
108
100
AcDbEntity
  8
0
100
AcDbBlockEnd
  0
ENDSEC
  0
SECTION
  2
ENTITIES
  0
LINE
  5
83
330
1F
100
AcDbEntity
  8
0
  6
Continuous
 62
     7
370
    25
100
AcDbLine
 10
144.6418922725
 20
169.6459609626
 30
0.0
 11
144.399234026
 21
183.5478425974
 31
0.0
  0
LINE
  5
84
330
1F
100
AcDbEntity
  8
0
  6
Continuous
 62
     7
370
    25
100
AcDbLine
 10
130.399234026
 20
183.5478425974
 30
0.0
 11
130.156563875
 21
169.6452789587
 31
0.0
  0
LINE
  5
85
330
1F
100
AcDbEntity
  8
0
  6
Continuous
 62
     7
370
    25
100
AcDbLine
 10
130.1566357042
 20
105.2462911452
 30
0.0
 11
130.399234026
 21
91.3478425974
 31
0.0
  0
LINE
  5
86
330
1F
100
AcDbEntity
  8
0
  6
Continuous
 62
     7
370
    25
100
AcDbLine
 10
144.399234026
 20
91.3478425974
 30
0.0
 11
144.6418365936
 21
105.2465343893
 31
0.0
  0
CIRCLE
  5
87
330
1F
100
AcDbEntity
  8
0
  6
Continuous
 62
     7
370
    25
100
AcDbCircle
 10
137.399234026
 20
137.4478425974
 30
0.0
 40
25.0
  0
CIRCLE
  5
88
330
1F
100
AcDbEntity
  8
0
  6
Continuous
 62
     7
370
    25
100
AcDbCircle
 10
137.399234026
 20
137.4478425974
 30
0.0
 40
32.0
  0
CIRCLE
  5
89
330
1F
100
AcDbEntity
  8
0
  6
Continuous
 62
     7
370
    25
100
AcDbCircle
 10
137.399234026
 20
137.4478425974
 30
0.0
 40
33.0
  0
LINE
  5
8A
330
1F
100
AcDbEntity
  8
0
  6
Continuous
 62
     7
370
    25
100
AcDbLine
 10
130.399234026
 20
183.5478425974
 30
0.0
 11
144.399234026
 21
183.5478425974
 31
0.0
  0
LINE
  5
8B
330
1F
100
AcDbEntity
  8
0
  6
Continuous
 62
     7
370
    25
100
AcDbLine
 10
130.399234026
 20
91.3478425974
 30
0.0
 11
144.399234026
 21
91.3478425974
 31
0.0
  0
INSERT
  5
97
330
1F
100
AcDbEntity
  8
FORMAT
 62
     7
100
AcDbBlockReference
  2
SW_CENTERMARKSYMBOL_0
 10
137.399234026
 20
137.4478425974
 30
0.0
  0
LINE
  5
98
330
1F
100
AcDbEntity
  8
0
  6
Continuous
 62
     7
370
    25
100
AcDbLine
 10
288.6026970557
 20
104.4478425974
 30
0.0
 11
290.1394937692
 21
104.4478425974
 31
0.0
  0
LINE
  5
99
330
1F
100
AcDbEntity
  8
0
  6
Continuous
 62
     7
370
    25
100
AcDbLine
 10
227.2312305662
 20
104.4478425974
 30
0.0
 11
274.1613897749
 21
104.4478425974
 31
0.0
  0
LINE
  5
9A
330
1F
100
AcDbEntity
  8
0
  6
Continuous
 62
     7
370
    25
100
AcDbLine
 10
274.1666888755
 20
170.4478425974
 30
0.0
 11
227.2312305662
 21
170.4478425974
 31
0.0
  0
LINE
  5
9B
330
1F
100
AcDbEntity
  8
0
  6
Continuous
 62
     7
370
    25
100
AcDbLine
 10
290.1394937692
 20
170.4478425974
 30
0.0
 11
288.5782526811
 21
170.4478425974
 31
0.0
  0
ARC
  5
9C
330
1F
100
AcDbEntity
  8
0
  6
Continuous
 62
     7
370
    25
100
AcDbCircle
 10
290.1394937692
 20
105.4478425974
 30
0.0
 40
1.0
100
AcDbArc
 50
270.0
 51
0.0
  0
ARC
  5
9D
330
1F
100
AcDbEntity
  8
0
  6
Continuous
 62
     7
370
    25
100
AcDbCircle
 10
290.1394937692
 20
169.4478425974
 30
0.0
 40
1.0
100
AcDbArc
 50
0.0
 51
90.0
  0
ARC
  5
9E
330
1F
100
AcDbEntity
  8
0
  6
Continuous
 62
     7
370
    25
100
AcDbCircle
 10
227.2312305662
 20
107.4478425974
 30
0.0
 40
3.0
100
AcDbArc
 50
206.600134961
 51
270.0
  0
ARC
  5
9F
330
1F
100
AcDbEntity
  8
0
  6
Continuous
 62
     7
370
    25
100
AcDbCircle
 10
227.2312305662
 20
167.4478425974
 30
0.0
 40
3.0
100
AcDbArc
 50
90.0
 51
153.399865039
  0
ARC
  5
A0
330
1F
100
AcDbEntity
  8
0
  6
Continuous
 62
     7
370
    25
100
AcDbCircle
 10
287.1394937692
 20
137.4478425974
 30
0.0
 40
70.00000000000003
100
AcDbArc
 50
153.399865039
 51
206.600134961
  0
LINE
  5
A1
330
1F
100
AcDbEntity
  8
0
  6
Continuous
 62
     7
370
    25
100
AcDbLine
 10
288.6046764766
 20
170.4425239555
 30
0.0
 11
288.3759222888
 21
183.5478425974
 31
0.0
  0
LINE
  5
A2
330
1F
100
AcDbEntity
  8
0
  6
Continuous
 62
     7
370
    25
100
AcDbLine
 10
274.3759222888
 20
183.5478425974
 30
0.0
 11
274.1471925936
 21
170.4439271376
 31
0.0
  0
LINE
  5
A3
330
1F
100
AcDbEntity
  8
0
  6
Continuous
 62
     7
370
    25
100
AcDbLine
 10
274.1472113627
 20
104.4506827796
 30
0.0
 11
274.3759222888
 21
91.3478425974
 31
0.0
  0
LINE
  5
A4
330
1F
100
AcDbEntity
  8
0
  6
Continuous
 62
     7
370
    25
100
AcDbLine
 10
288.3759222888
 20
91.3478425974
 30
0.0
 11
288.6045902215
 21
104.4482196867
 31
0.0
  0
SPLINE
  5
A5
330
1F
100
AcDbEntity
  8
0
  6
Continuous
 62
     7
370
    25
100
AcDbSpline
210
0.0
220
0.0
230
1.0
 70
     8
 71
     3
 72
    26
 73
    22
 74
     0
 42
0.00000001
 43
0.00000001
 40
0.0
 40
0.0
 40
0.0
 40
0.0
 40
0.0508971071313263
 40
0.1043434993034059
 40
0.1562437115737507
 40
0.2095954977238778
 40
0.2624703634447343
 40
0.3168477531711739
 40
0.3701974442924019
 40
0.4251454674623482
 40
0.4775702990153833
 40
0.5315768198367807
 40
0.583013999236667
 40
0.6359222467961092
 40
0.6877941468693185
 40
0.7411038604068086
 40
0.7941627981248077
 40
0.8487444589377547
 40
0.9020068018871737
 40
0.9568698864572698
 40
1.0
 40
1.0
 40
1.0
 40
1.0
 10
288.6026970556699
 20
104.4482549610798
 30
0.0
 10
288.5855256701243
 20
104.4520553662388
 30
0.0
 10
288.5503228352933
 20
104.459846527572
 30
0.0
 10
288.2510605214424
 20
104.5244976212019
 30
0.0
 10
287.7743517981884
 20
104.6218923539506
 30
0.0
 10
287.1220074199884
 20
104.7444245758134
 30
0.0
 10
286.3013879878526
 20
104.880399202189
 30
0.0
 10
285.3412392213914
 20
105.0135909991828
 30
0.0
 10
284.2535680624202
 20
105.1301955646918
 30
0.0
 10
283.0933213712786
 20
105.2138855097087
 30
0.0
 10
281.8777208556939
 20
105.2562127719535
 30
0.0
 10
280.6731702574151
 20
105.2522534600551
 30
0.0
 10
279.4863441288495
 20
105.2036975584766
 30
0.0
 10
278.3681474186665
 20
105.117764251163
 30
0.0
 10
277.3213154676725
 20
105.0021580150519
 30
0.0
 10
276.3850206153004
 20
104.870253095853
 30
0.0
 10
275.5729718007456
 20
104.7343402356002
 30
0.0
 10
274.9225644039988
 20
104.6110762144533
 30
0.0
 10
274.4551432909466
 20
104.5148513705197
 30
0.0
 10
274.1851196998596
 20
104.4562056159017
 30
0.0
 10
274.1686421157771
 20
104.4525479251811
 30
0.0
 10
274.1613897749404
 20
104.450938052056
 30
0.0
  0
SPLINE
  5
A6
330
1F
100
AcDbEntity
  8
0
  6
Continuous
 62
     7
370
    25
100
AcDbSpline
210
0.0
220
0.0
230
1.0
 70
     8
 71
     3
 72
    27
 73
    23
 74
     0
 42
0.00000001
 43
0.00000001
 40
0.0
 40
0.0
 40
0.0
 40
0.0
 40
0.0143182843951958
 40
0.0680982552364627
 40
0.1198506897719594
 40
0.1730642742870719
 40
0.2255656322265145
 40
0.2795400528231861
 40
0.3328797059467798
 40
0.3877897534620187
 40
0.4406465144313939
 40
0.4951085455102529
 40
0.5467624640925702
 40
0.599924680539391
 40
0.6514786995252208
 40
0.7044666184851808
 40
0.7571439924641022
 40
0.8113065040969211
 40
0.8646741684399509
 40
0.9196273841003477
 40
0.9722942944694434
 40
1.0
 40
1.0
 40
1.0
 40
1.0
 10
274.1666888755209
 20
170.4435816506289
 30
0.0
 10
274.1609773476799
 20
170.4448341470767
 30
0.0
 10
274.1338131239521
 20
170.4507910634523
 30
0.0
 10
274.2861971103557
 20
170.4172523966895
 30
0.0
 10
274.6258532260149
 20
170.3450488465443
 30
0.0
 10
275.1599609567847
 20
170.2381983243959
 30
0.0
 10
275.8678416813265
 20
170.1097700799407
 30
0.0
 10
276.7302033215048
 20
169.9735624720407
 30
0.0
 10
277.7379712722131
 20
169.8431371869336
 30
0.0
 10
278.8455442864093
 20
169.7360389291062
 30
0.0
 10
280.0357048583057
 20
169.6636743542321
 30
0.0
 10
281.2423792192738
 20
169.6358258871862
 30
0.0
 10
282.4543273475171
 20
169.6540483876376
 30
0.0
 10
283.6139181653139
 20
169.714557907731
 30
0.0
 10
284.7194053699006
 20
169.811331884728
 30
0.0
 10
285.7293936000705
 20
169.9327159529858
 30
0.0
 10
286.6347760178303
 20
170.0680658612927
 30
0.0
 10
287.3950890300031
 20
170.2009289275555
 30
0.0
 10
287.9981002131677
 20
170.3186152230429
 30
0.0
 10
288.3968367759288
 20
170.4023294995019
 30
0.0
 10
288.5973438122247
 20
170.4462437862418
 30
0.0
 10
288.5831466621809
 20
170.4431345217168
 30
0.0
 10
288.5782526811392
 20
170.4420627093043
 30
0.0
  0
LINE
  5
A7
330
1F
100
AcDbEntity
  8
0
  6
Continuous
 62
     7
370
    25
100
AcDbLine
 10
291.1394937692
 20
137.4478425974
 30
0.0
 11
291.1394937692
 21
169.4478425974
 31
0.0
  0
LINE
  5
A8
330
1F
100
AcDbEntity
  8
0
  6
Continuous
 62
     7
370
    25
100
AcDbLine
 10
291.1394937692
 20
105.4478425974
 30
0.0
 11
291.1394937692
 21
137.4478425974
 31
0.0
  0
LINE
  5
A9
330
1F
100
AcDbEntity
  8
0
  6
Continuous
 62
     7
370
    25
100
AcDbLine
 10
281.3759222888
 20
183.5478425974
 30
0.0
 11
288.3759222888
 21
183.5478425974
 31
0.0
  0
LINE
  5
AA
330
1F
100
AcDbEntity
  8
0
  6
Continuous
 62
     7
370
    25
100
AcDbLine
 10
274.3759222888
 20
183.5478425974
 30
0.0
 11
281.3759222888
 21
183.5478425974
 31
0.0
  0
LINE
  5
AB
330
1F
100
AcDbEntity
  8
0
  6
Continuous
 62
     7
370
    25
100
AcDbLine
 10
281.3759222888
 20
91.3478425974
 30
0.0
 11
288.3759222888
 21
91.3478425974
 31
0.0
  0
LINE
  5
AC
330
1F
100
AcDbEntity
  8
0
  6
Continuous
 62
     7
370
    25
100
AcDbLine
 10
274.3759222888
 20
91.3478425974
 30
0.0
 11
281.3759222888
 21
91.3478425974
 31
0.0
  0
LINE
  5
AD
330
1F
100
AcDbEntity
  8
0
  6
Continuous
 62
     1
370
    25
100
AcDbLine
 10
290.1394937692
 20
137.4478425974
 30
0.0
 11
290.1394937692
 21
170.4478425974
 31
0.0
  0
LINE
  5
AE
330
1F
100
AcDbEntity
  8
0
  6
Continuous
 62
     1
370
    25
100
AcDbLine
 10
290.1394937692
 20
104.4478425974
 30
0.0
 11
290.1394937692
 21
137.4478425974
 31
0.0
  0
LINE
  5
AF
330
1F
100
AcDbEntity
  8
0
  6
Continuous
 62
     1
370
    25
100
AcDbLine
 10
227.2312305662
 20
137.4478425974
 30
0.0
 11
227.2312305662
 21
170.4478425974
 31
0.0
  0
LINE
  5
B0
330
1F
100
AcDbEntity
  8
0
  6
Continuous
 62
     1
370
    25
100
AcDbLine
 10
227.2312305662
 20
104.4478425974
 30
0.0
 11
227.2312305662
 21
137.4478425974
 31
0.0
  0
LINE
  5
B1
330
1F
100
AcDbEntity
  8
0
  6
Continuous
 62
     1
370
    25
100
AcDbLine
 10
224.5487710198
 20
137.4478425974
 30
0.0
 11
224.5487710198
 21
168.7911261795
 31
0.0
  0
LINE
  5
B2
330
1F
100
AcDbEntity
  8
0
  6
Continuous
 62
     1
370
    25
100
AcDbLine
 10
224.5487710198
 20
106.1045590153
 30
0.0
 11
224.5487710198
 21
137.4478425974
 31
0.0
  0
SPLINE
  5
B3
330
1F
100
AcDbEntity
  8
0
  6
Continuous
 62
     7
370
    25
100
AcDbSpline
210
0.0
220
0.0
230
1.0
 70
     8
 71
     3
 72
    22
 73
    18
 74
     0
 42
0.00000001
 43
0.00000001
 40
0.0
 40
0.0
 40
0.0
 40
0.0
 40
0.0278356794225747
 40
0.0959451495606783
 40
0.1641758355021427
 40
0.2325961056627292
 40
0.3012544019427349
 40
0.3701764118487863
 40
0.4393656302783233
 40
0.5088067650432891
 40
0.5784709317632751
 40
0.6483214006559175
 40
0.718318823940034
 40
0.7884252712925566
 40
0.8586068481989001
 40
0.9288350182822496
 40
1.0
 40
1.0
 40
1.0
 40
1.0
 10
207.3317936308373
 20
263.7340874945908
 30
0.0
 10
207.2219084636332
 20
263.6560505258753
 30
0.0
 10
206.8431518095616
 20
263.3870695349318
 30
0.0
 10
206.2432794236939
 20
262.8540412604042
 30
0.0
 10
205.5336107888937
 20
262.1386367691162
 30
0.0
 10
204.8758916310766
 20
261.3526178305238
 30
0.0
 10
204.2681649911611
 20
260.5030183948746
 30
0.0
 10
203.7129901774992
 20
259.5901478875886
 30
0.0
 10
203.2116971002317
 20
258.6164512485082
 30
0.0
 10
202.7658615196277
 20
257.5841740449101
 30
0.0
 10
202.3768435117217
 20
256.4959903673703
 30
0.0
 10
202.0458044229733
 20
255.3548227088071
 30
0.0
 10
201.7738153766429
 20
254.163747942793
 30
0.0
 10
201.5612164022308
 20
252.9262718741444
 30
0.0
 10
201.4099970274115
 20
251.6450109618385
 30
0.0
 10
201.314501810704
 20
250.3206996832192
 30
0.0
 10
201.3026419692406
 20
249.4057057438057
 30
0.0
 10
201.296672759345
 20
248.9451775913403
 30
0.0
  0
SPLINE
  5
B4
330
1F
100
AcDbEntity
  8
0
  6
Continuous
 62
     7
370
    25
100
AcDbSpline
210
0.0
220
0.0
230
1.0
 70
     8
 71
     3
 72
    53
 73
    49
 74
     0
 42
0.00000001
 43
0.00000001
 40
0.0
 40
0.0
 40
0.0
 40
0.0
 40
0.0117160843984578
 40
0.0339088494682692
 40
0.0560964075137381
 40
0.0782775305641544
 40
0.1004511157523627
 40
0.1226166669139235
 40
0.1447741392272328
 40
0.1669238170721607
 40
0.1890662204619012
 40
0.2112020349137253
 40
0.2333320599381315
 40
0.2554571719688167
 40
0.2775782982783033
 40
0.2996963991000888
 40
0.3218124557538141
 40
0.3439274630293696
 40
0.3660424244316208
 40
0.3881581461350845
 40
0.4102755077956312
 40
0.4323955238762646
 40
0.4545192071164554
 40
0.4766475632049919
 40
0.4987815822978498
 40
0.5209222258534255
 40
0.5430704068980189
 40
0.5652269613255038
 40
0.5873926072009608
 40
0.6095678882959955
 40
0.6317530972922959
 40
0.6539481733881073
 40
0.6761525687040011
 40
0.6983650784034174
 40
0.7205836316347539
 40
0.7428047377419099
 40
0.7650222829463115
 40
0.7872294610294283
 40
0.8094175596324144
 40
0.8315759490826219
 40
0.853692356015994
 40
0.8757535420029818
 40
0.8977464690372875
 40
0.9196599338853432
 40
0.9414864981313003
 40
0.9632243741954741
 40
0.9848788246804475
 40
1.0
 40
1.0
 40
1.0
 40
1.0
 10
201.296672759345
 20
248.9451775913403
 30
0.0
 10
201.2983685655641
 20
248.7026175354908
 30
0.0
 10
201.303276590793
 20
248.0005969507041
 30
0.0
 10
201.3576458660029
 20
246.8154379428904
 30
0.0
 10
201.4791531793279
 20
245.3836855041051
 30
0.0
 10
201.6610476312506
 20
243.9281859695782
 30
0.0
 10
201.901667948647
 20
242.4531540544033
 30
0.0
 10
202.2005419723255
 20
240.9621121386057
 30
0.0
 10
202.5567158793559
 20
239.458801965415
 30
0.0
 10
202.9692052910577
 20
237.9469325116855
 30
0.0
 10
203.4368770738974
 20
236.4302418607998
 30
0.0
 10
203.9584833752726
 20
234.9124735479609
 30
0.0
 10
204.5326549905798
 20
233.3973745872543
 30
0.0
 10
205.1579059452841
 20
231.8886867056234
 30
0.0
 10
205.8326355375867
 20
230.3901386415795
 30
0.0
 10
206.5551316061052
 20
228.9054376177657
 30
0.0
 10
207.3235740525837
 20
227.438260684157
 30
0.0
 10
208.1360388872338
 20
225.992245913727
 30
0.0
 10
208.9905000993059
 20
224.5709879493812
 30
0.0
 10
209.8848348446105
 20
223.1780273553745
 30
0.0
 10
210.8168303213085
 20
221.8168388485033
 30
0.0
 10
211.7841927175892
 20
220.4908189417815
 30
0.0
 10
212.7845527504133
 20
219.2032798618074
 30
0.0
 10
213.815470110758
 20
217.9574448845829
 30
0.0
 10
214.8744398693202
 20
216.7564413822723
 30
0.0
 10
215.9588989480226
 20
215.6032944530156
 30
0.0
 10
217.0662325283258
 20
214.5009212075696
 30
0.0
 10
218.1937802320839
 20
213.4521257755746
 30
0.0
 10
219.3388418653885
 20
212.4595950749269
 30
0.0
 10
220.4986824611696
 20
211.5258953527104
 30
0.0
 10
221.6705362941953
 20
210.6534694470013
 30
0.0
 10
222.8516094787917
 20
209.8446346244107
 30
0.0
 10
224.0390807089699
 20
209.101580704118
 30
0.0
 10
225.2300996875603
 20
208.4263679739035
 30
0.0
 10
226.4217773589322
 20
207.8209269144791
 30
0.0
 10
227.6111567112514
 20
207.2870611521708
 30
0.0
 10
228.7952209120594
 20
206.8264226062711
 30
0.0
 10
229.9708880387859
 20
206.4404923766889
 30
0.0
 10
231.1350239052068
 20
206.1305527597773
 30
0.0
 10
232.2844205506806
 20
205.8976668495538
 30
0.0
 10
233.4158091016924
 20
205.7426330906464
 30
0.0
 10
234.5258692407001
 20
205.665974945768
 30
0.0
 10
235.6113285685396
 20
205.667794559305
 30
0.0
 10
236.6688157079894
 20
205.7481628034689
 30
0.0
 10
237.6957044867726
 20
205.9055956090338
 30
0.0
 10
238.6873191306937
 20
206.1427523368043
 30
0.0
 10
239.5521041681928
 20
206.4153715419318
 30
0.0
 10
240.0689941695795
 20
206.641604923231
 30
0.0
 10
240.2815258168569
 20
206.7346261715965
 30
0.0
  0
LINE
  5
B5
330
1F
100
AcDbEntity
  8
0
  6
Continuous
 62
     7
370
    25
100
AcDbLine
 10
252.9082901723
 20
290.1416684505
 30
0.0
 11
235.654687539
 21
280.1813756611
 31
0.0
  0
LINE
  5
B6
330
1F
100
AcDbEntity
  8
0
  6
Continuous
 62
     7
370
    25
100
AcDbLine
 10
224.0428512463
 20
273.4780052546
 30
0.0
 11
208.4254306688
 21
264.4622602607
 31
0.0
  0
LINE
  5
B7
330
1F
100
AcDbEntity
  8
0
  6
Continuous
 62
     7
370
    25
100
AcDbLine
 10
241.4227488458
 20
207.3030353436
 30
0.0
 11
285.9056083493
 21
232.9824435334
 31
0.0
  0
LINE
  5
B8
330
1F
100
AcDbEntity
  8
0
  6
Continuous
 62
     7
370
    25
100
AcDbLine
 10
238.3557755221
 20
266.1395192499
 30
0.0
 11
238.1203375428
 21
277.1523731451
 31
0.0
  0
LINE
  5
B9
330
1F
100
AcDbEntity
  8
0
  6
Continuous
 62
     7
370
    25
100
AcDbLine
 10
224.1214036143
 20
277.1523731451
 30
0.0
 11
223.8856322412
 21
266.1239244162
 31
0.0
  0
SPLINE
  5
BA
330
1F
100
AcDbEntity
  8
0
  6
Continuous
 62
     7
370
    25
100
AcDbSpline
210
0.0
220
0.0
230
1.0
 70
     8
 71
     3
 72
    70
 73
    66
 74
     0
 42
0.00000001
 43
0.00000001
 40
0.0
 40
0.0
 40
0.0
 40
0.0
 40
0.009834376842086
 40
0.0249824421450174
 40
0.0401414743303933
 40
0.0553491841334924
 40
0.0706397826976334
 40
0.0860419156708208
 40
0.1015769044037261
 40
0.1172574749212523
 40
0.1330871993329488
 40
0.1490608332394126
 40
0.1651655893273434
 40
0.1813831747945493
 40
0.1976922255469277
 40
0.2140706877453898
 40
0.2304977652694082
 40
0.2469552263539598
 40
0.2634280549803767
 40
0.2799028469005118
 40
0.2963705200760866
 40
0.3128259460072902
 40
0.32926601048799
 40
0.3456891606261358
 40
0.3620950174283439
 40
0.3784840625095817
 40
0.3948573944650007
 40
0.4112165451143353
 40
0.427563344444996
 40
0.4438998237021322
 40
0.4602281475217411
 40
0.4765505676285475
 40
0.4928693921073043
 40
0.509186965474157
 40
0.5255055893345757
 40
0.5418269207787801
 40
0.558153350077156
 40
0.5744872662971782
 40
0.590831043459181
 40
0.6071870193692006
 40
0.6235574628838707
 40
0.6399445244996811
 40
0.6563501637964889
 40
0.6727760455887298
 40
0.6892233947652447
 40
0.7056927980375813
 40
0.7221839398191857
 40
0.7386952604464531
 40
0.7552235299921509
 40
0.7717633431207525
 40
0.7883044195233055
 40
0.8048329312273635
 40
0.8213325845075263
 40
0.8377834382615068
 40
0.8541625825170026
 40
0.8704455893943092
 40
0.8866087429239016
 40
0.9026318092740875
 40
0.9185008658618783
 40
0.9342106008458515
 40
0.9497656046217825
 40
0.9651804572331172
 40
0.9804787247397618
 40
0.9956911746072548
 40
1.0
 40
1.0
 40
1.0
 40
1.0
 10
285.9126858251381
 20
232.9975321000658
 30
0.0
 10
286.1078945326458
 20
233.1100748093801
 30
0.0
 10
286.6037866791258
 20
233.3959690525474
 30
0.0
 10
287.3510786617757
 20
233.9362343546267
 30
0.0
 10
288.1567360900405
 20
234.6056057013654
 30
0.0
 10
288.9119759808393
 20
235.3445515949403
 30
0.0
 10
289.6176054560079
 20
236.1481133311456
 30
0.0
 10
290.2715888549854
 20
237.0160913966875
 30
0.0
 10
290.8724948249267
 20
237.9469503663796
 30
0.0
 10
291.4185677274655
 20
238.9392825076909
 30
0.0
 10
291.9080326860851
 20
239.9912349205298
 30
0.0
 10
292.3391130198595
 20
241.1005262829196
 30
0.0
 10
292.7101550693982
 20
242.2643710755717
 30
0.0
 10
293.0197278475878
 20
243.4795108770262
 30
0.0
 10
293.2667070244761
 20
244.742292396152
 30
0.0
 10
293.4503214696238
 20
246.0487838718735
 30
0.0
 10
293.5701617580032
 20
247.394898134076
 30
0.0
 10
293.6261569202382
 20
248.7764996340919
 30
0.0
 10
293.6185320732704
 20
250.1894324055579
 30
0.0
 10
293.5477692430594
 20
251.6295953218172
 30
0.0
 10
293.4145601289554
 20
253.0929977722729
 30
0.0
 10
293.2197519127209
 20
254.5758093117366
 30
0.0
 10
292.9643113020997
 20
256.0743098437584
 30
0.0
 10
292.6493094127622
 20
257.5848302522346
 30
0.0
 10
292.2759113856291
 20
259.1037369317015
 30
0.0
 10
291.8453707738053
 20
260.6274196976519
 30
0.0
 10
291.3590269328876
 20
262.1522836386649
 30
0.0
 10
290.8183040491529
 20
263.6747447648865
 30
0.0
 10
290.2247108248481
 20
265.1912289675292
 30
0.0
 10
289.5798401589713
 20
266.6981736808752
 30
0.0
 10
288.8853684050348
 20
268.1920316330431
 30
0.0
 10
288.1430539630514
 20
269.669276122283
 30
0.0
 10
287.3547350850636
 20
271.1264073263563
 30
0.0
 10
286.5223279890775
 20
272.5599572755754
 30
0.0
 10
285.6478351213638
 20
273.9664783006053
 30
0.0
 10
284.7333302573296
 20
275.3425731026792
 30
0.0
 10
283.7809513732643
 20
276.684904132112
 30
0.0
 10
282.7928802572172
 20
277.990216833027
 30
0.0
 10
281.7713493836517
 20
279.2553241407105
 30
0.0
 10
280.718635769809
 20
280.4771107319496
 30
0.0
 10
279.6370550751192
 20
281.6525359880796
 30
0.0
 10
278.5289563840702
 20
282.7786354426462
 30
0.0
 10
277.3967182466772
 20
283.8525205333878
 30
0.0
 10
276.2427467269894
 20
284.8713765536557
 30
0.0
 10
275.0694764176288
 20
285.8324588420961
 30
0.0
 10
273.8793756005153
 20
286.7330874977955
 30
0.0
 10
272.6749569272044
 20
287.570641310977
 30
0.0
 10
271.4587950635376
 20
288.3425522138693
 30
0.0
 10
270.2335525532457
 20
289.0463024165713
 30
0.0
 10
269.0020676357078
 20
289.679400150235
 30
0.0
 10
267.7674043638847
 20
290.2394073945468
 30
0.0
 10
266.5328679521023
 20
290.7240023045985
 30
0.0
 10
265.301989418077
 20
291.13105553785
 30
0.0
 10
264.0785367719523
 20
291.4587011892496
 30
0.0
 10
262.8665279779757
 20
291.7054198522408
 30
0.0
 10
261.6701674412107
 20
291.870143065234
 30
0.0
 10
260.4937399006932
 20
291.9523373123974
 30
0.0
 10
259.3414576822098
 20
291.9520714990066
 30
0.0
 10
258.217345350057
 20
291.8699495940094
 30
0.0
 10
257.124975090983
 20
291.7072723527206
 30
0.0
 10
256.0678781305593
 20
291.465081873728
 30
0.0
 10
255.0477012093888
 20
291.1471043776874
 30
0.0
 10
254.0709401972224
 20
290.7482290802205
 30
0.0
 10
253.3492160591192
 20
290.4037679776545
 30
0.0
 10
252.9681882718411
 20
290.1695404663426
 30
0.0
 10
252.8840860713814
 20
290.1178406959656
 30
0.0
  0
LINE
  5
BB
330
1F
100
AcDbEntity
  8
0
  6
Continuous
 62
     7
370
    25
100
AcDbLine
 10
223.9633512202
 20
209.160636769
 30
0.0
 11
224.1214036143
 21
201.7675733044
 31
0.0
  0
LINE
  5
BC
330
1F
100
AcDbEntity
  8
0
  6
Continuous
 62
     7
370
    25
100
AcDbLine
 10
238.1203375428
 20
201.7675733044
 30
0.0
 11
238.2117263003
 21
206.0423765309
 31
0.0
  0
LWPOLYLINE
  5
BD
330
1F
100
AcDbEntity
  8
0
  6
Continuous
 62
     7
370
    25
100
AcDbPolyline
 90
      117
 70
   128
 43
0.0
 10
201.5895659782
 20
248.5369735354
 10
201.6227510345
 20
249.932428318
 10
201.7222088661
 20
251.2854753408
 10
201.8876477459
 20
252.5921458837
 10
202.1185824133
 20
253.8486072569
 10
202.414335497
 20
255.0511740427
 10
202.7740395023
 20
256.1963189056
 10
203.1966393554
 20
257.2806829382
 10
203.6808954981
 20
258.3010855141
 10
204.2253875237
 20
259.2545336167
 10
204.8285183433
 20
260.1382306185
 10
205.4885188702
 20
260.9495844839
 10
206.2034532092
 20
261.6862153722
 10
206.9712243347
 20
262.3459626181
 10
207.7895802417
 20
262.9268910692
 10
208.6561205514
 20
263.4272967623
 10
209.5683035516
 20
263.8457119214
 10
210.5234536525
 20
264.1809092625
 10
211.5187692343
 20
264.4319055943
 10
212.5513308649
 20
264.5979647011
 10
213.618109863
 20
264.6785995031
 10
214.7159771822
 20
264.6735734844
 10
215.8417125884
 20
264.5829013872
 10
216.9920141057
 20
264.4068491685
 10
218.1635077015
 20
264.1459332196
 10
219.3527571832
 20
263.8009188522
 10
220.5562742774
 20
263.3728180526
 10
221.7705288608
 20
262.8628865144
 10
222.9919593158
 20
262.2726199545
 10
224.2169829761
 20
261.6037497266
 10
225.4420066365
 20
260.8582377422
 10
226.6634370914
 20
260.0382707165
 10
227.8776916749
 20
259.146253754
 10
229.081208769
 20
258.1848032941
 10
230.2704582508
 20
257.1567394367
 10
231.4419518466
 20
256.0650776702
 10
232.5922533639
 20
254.9130200267
 10
233.71798877
 20
253.7039456898
 10
234.8158560892
 20
252.4414010828
 10
235.8826350874
 20
251.1290894665
 10
236.9151967179
 20
249.7708600771
 10
237.9105122997
 20
248.3706968353
 10
238.8656624007
 20
246.9327066612
 10
239.7778454009
 20
245.4611074278
 10
240.6443857105
 20
243.9602155891
 10
241.4627416175
 20
242.4344335195
 10
242.230512743
 20
240.8882366008
 10
242.9454470821
 20
239.3261600947
 10
243.605447609
 20
237.752785841
 10
244.2085784285
 20
236.1727288174
 10
244.7530704541
 20
234.5906236034
 10
245.2373265968
 20
233.0111107861
 10
245.6599264499
 20
231.4388233488
 10
246.0196304553
 20
229.8783730815
 10
246.315383539
 20
228.3343370536
 10
246.5463182063
 20
226.8112441889
 10
246.7117570862
 20
225.3135619811
 10
246.8112149177
 20
223.8456833902
 10
246.8443999741
 20
222.4119139571
 10
246.8112149177
 20
221.0164591745
 10
246.7117570862
 20
219.6634121517
 10
246.5463182063
 20
218.3567416088
 10
246.315383539
 20
217.1002802356
 10
246.0196304553
 20
215.8977134498
 10
245.6599264499
 20
214.752568587
 10
245.2373265968
 20
213.6682045543
 10
244.7530704541
 20
212.6478019784
 10
244.2085784285
 20
211.6943538758
 10
243.605447609
 20
210.810656874
 10
242.9454470821
 20
209.9993030086
 10
242.230512743
 20
209.2626721203
 10
241.4627416175
 20
208.6029248744
 10
240.6443857105
 20
208.0219964233
 10
239.7778454009
 20
207.5215907302
 10
238.8656624007
 20
207.1031755712
 10
237.9105122997
 20
206.76797823
 10
236.9151967179
 20
206.5169818983
 10
235.8826350874
 20
206.3509227914
 10
234.8158560892
 20
206.2702879895
 10
233.71798877
 20
206.2753140082
 10
232.5922533639
 20
206.3659861053
 10
231.4419518466
 20
206.5420383241
 10
230.2704582508
 20
206.8029542729
 10
229.081208769
 20
207.1479686404
 10
227.8776916749
 20
207.5760694399
 10
226.6634370914
 20
208.0860009782
 10
225.4420066365
 20
208.676267538
 10
224.2169829761
 20
209.3451377659
 10
222.9919593158
 20
210.0906497503
 10
221.7705288608
 20
210.910616776
 10
220.5562742774
 20
211.8026337386
 10
219.3527571832
 20
212.7640841985
 10
218.1635077015
 20
213.7921480559
 10
216.9920141057
 20
214.8838098223
 10
215.8417125884
 20
216.0358674658
 10
214.7159771822
 20
217.2449418027
 10
213.618109863
 20
218.5074864098
 10
212.5513308649
 20
219.819798026
 10
211.5187692343
 20
221.1780274154
 10
210.5234536525
 20
222.5781906572
 10
209.5683035516
 20
224.0161808313
 10
208.6561205514
 20
225.4877800647
 10
207.7895802417
 20
226.9886719034
 10
206.9712243347
 20
228.514453973
 10
206.2034532092
 20
230.0606508918
 10
205.4885188702
 20
231.6227273978
 10
204.8285183433
 20
233.1961016515
 10
204.2253875237
 20
234.7761586751
 10
203.6808954981
 20
236.3582638892
 10
203.1966393554
 20
237.9377767064
 10
202.7740395023
 20
239.5100641437
 10
202.414335497
 20
241.0705144111
 10
202.1185824133
 20
242.6145504389
 10
201.8876477459
 20
244.1376433037
 10
201.7222088661
 20
245.6353255114
 10
201.6227510345
 20
247.1032041023
 10
201.5895659782
 20
248.5369735354
  0
ARC
  5
BE
330
1F
100
AcDbEntity
  8
0
  6
Continuous
 62
     7
370
    25
100
AcDbCircle
 10
213.9397479971
 20
254.9101719031
 30
0.0
 40
11.0294790047761
100
AcDbArc
 50
113.4811900582
 51
126.4384629333
  0
ARC
  5
BF
330
1F
100
AcDbEntity
  8
0
  6
Continuous
 62
     7
370
    25
100
AcDbCircle
 10
235.9096462252
 20
216.8529821758
 30
0.0
 40
11.02702075587646
100
AcDbArc
 50
293.7464772601
 51
306.0321009745
  0
LINE
  5
C0
330
1F
100
AcDbEntity
  8
0
  6
Continuous
 62
     7
370
    25
100
AcDbLine
 10
252.8841541879
 20
290.1276942237
 30
0.0
 11
252.9082901723
 21
290.1416684505
 31
0.0
  0
LINE
  5
C1
330
1F
100
AcDbEntity
  8
0
  6
Continuous
 62
     7
370
    25
100
AcDbLine
 10
238.3562745294
 20
266.0315465841
 30
0.0
 11
238.343915608
 21
266.1388373263
 31
0.0
  0
SPLINE
  5
C2
330
1F
100
AcDbEntity
  8
0
  6
Continuous
 62
     7
370
    25
100
AcDbSpline
210
0.0
220
0.0
230
1.0
 70
     8
 71
     3
 72
    27
 73
    23
 74
     0
 42
0.00000001
 43
0.00000001
 40
0.0
 40
0.0
 40
0.0
 40
0.0
 40
0.0116281596313601
 40
0.0650086261644637
 40
0.1191315702346367
 40
0.1732488350517973
 40
0.2266672464717893
 40
0.2800838051685018
 40
0.3325765174031481
 40
0.3850735609783963
 40
0.4378598770442599
 40
0.4906498912408385
 40
0.5444899267727435
 40
0.5983266413964731
 40
0.65231891065158
 40
0.7063046442178469
 40
0.7591271342771156
 40
0.8119501088570592
 40
0.8640309025859408
 40
0.9161175231569136
 40
0.9580580927150272
 40
1.0
 40
1.0
 40
1.0
 40
1.0
 10
223.9033678346591
 20
266.1230670870882
 30
0.0
 10
223.8972101907931
 20
266.0803649952193
 30
0.0
 10
223.862785141531
 20
265.8416338103409
 30
0.0
 10
223.9976184891013
 20
265.4033952007546
 30
0.0
 10
224.3231405426142
 20
264.8167482569438
 30
0.0
 10
224.8579389581385
 20
264.246035491774
 30
0.0
 10
225.5690535143085
 20
263.7047093420755
 30
0.0
 10
226.4273571882964
 20
263.2078126535924
 30
0.0
 10
227.4123279098181
 20
262.767487877133
 30
0.0
 10
228.4909102365347
 20
262.3954222274045
 30
0.0
 10
229.6426803863963
 20
262.10666573026
 30
0.0
 10
230.8426088179824
 20
261.9121901566272
 30
0.0
 10
232.0585705710175
 20
261.8322583371647
 30
0.0
 10
233.2590870212484
 20
261.8766590722369
 30
0.0
 10
234.401012214065
 20
262.0606274175554
 30
0.0
 10
235.4463858790859
 20
262.3786223938525
 30
0.0
 10
236.3605259307914
 20
262.8299132590136
 30
0.0
 10
237.121767950075
 20
263.3901678557093
 30
0.0
 10
237.7121818456569
 20
264.0481513948878
 30
0.0
 10
238.095395376818
 20
264.7274036101765
 30
0.0
 10
238.311982753786
 20
265.3966828395387
 30
0.0
 10
238.3415104472095
 20
265.8199230859999
 30
0.0
 10
238.3562745293698
 20
266.0315465840704
 30
0.0
  0
LWPOLYLINE
  5
C3
330
1F
100
AcDbEntity
  8
0
  6
Continuous
 62
     7
370
    25
100
AcDbPolyline
 90
      104
 70
   128
 43
0.0
 10
206.5393134465
 20
245.679545144
 10
206.5721944923
 20
246.9050526129
 10
206.6707153103
 20
248.0880374659
 10
206.8345093964
 20
249.2240989219
 10
207.0629674259
 20
250.3090107575
 10
207.3552395199
 20
251.3387370295
 10
207.710238407
 20
252.3094470885
 10
208.1266434682
 20
253.2175298294
 10
208.6029056491
 20
254.0596071247
 10
209.1372532232
 20
254.8325463915
 10
209.7276983824
 20
255.533472245
 10
210.372044632
 20
256.1597771951
 10
211.0678949615
 20
256.709131346
 10
211.8126607621
 20
257.1794910645
 10
212.6035714561
 20
257.5691065813
 10
213.4376848037
 20
257.8765285012
 10
214.3118978484
 20
258.1006131944
 10
215.2229584605
 20
258.2405270511
 10
216.1674774344
 20
258.2957495827
 10
217.1419410976
 20
258.2660753577
 10
218.1427243814
 20
258.1516147662
 10
219.166104306
 20
257.9527936089
 10
220.2082738311
 20
257.6703515139
 10
221.2653560175
 20
257.3053391841
 10
222.33341845
 20
256.8591144894
 10
223.4084878662
 20
256.333337415
 10
224.4865649374
 20
255.7299638861
 10
225.563639146
 20
255.0512384919
 10
226.6357037052
 20
254.2996861355
 10
227.6987704644
 20
253.4781026409
 10
228.7488847454
 20
252.5895443528
 10
229.7821400542
 20
251.6373167662
 10
230.7946926132
 20
250.6249622305
 10
231.7827756603
 20
249.5562467709
 10
232.7427134617
 20
248.4351460792
 10
233.6709349857
 20
247.2658307235
 10
234.5639871873
 20
246.0526506338
 10
235.4185478536
 20
244.8001189197
 10
236.2314379629
 20
243.5128950814
 10
236.9996335105
 20
242.1957676762
 10
237.7202767586
 20
240.8536365046
 10
238.3906868669
 20
239.4914943825
 10
239.0083698657
 20
238.1144085683
 10
239.5710279339
 20
236.7275019115
 10
240.0765679463
 20
235.3359337961
 10
240.523109261
 20
233.9448809468
 10
240.908990715
 20
232.5595181715
 10
241.2327768038
 20
231.1849991108
 10
241.4932630219
 20
229.8264370659
 10
241.6894803436
 20
228.4888859769
 10
241.8206988275
 20
227.1773216215
 10
241.8864303322
 20
225.8966231054
 10
241.8864303322
 20
224.6515547111
 10
241.8206988275
 20
223.446748175
 10
241.6894803436
 20
222.2866854563
 10
241.4932630219
 20
221.1756820646
 10
241.2327768038
 20
220.1178710056
 10
240.908990715
 20
219.1171874057
 10
240.523109261
 20
218.1773538738
 10
240.0765679463
 20
217.3018666523
 10
239.5710279339
 20
216.4939826111
 10
239.0083698657
 20
215.7567071321
 10
238.3906868669
 20
215.0927829283
 10
237.7202767586
 20
214.5046798414
 10
236.9996335105
 20
213.9945856535
 10
236.2314379629
 20
213.5643979485
 10
235.4185478536
 20
213.215717053
 10
234.5639871873
 20
212.9498400827
 10
233.6709349857
 20
212.7677561175
 10
232.7427134617
 20
212.6701425216
 10
231.7827756603
 20
212.6573624241
 10
230.7946926132
 20
212.7294633677
 10
229.7821400542
 20
212.8861771323
 10
228.7488847454
 20
213.1269207322
 10
227.6987704644
 20
213.4507985855
 10
226.6357037052
 20
213.8566058454
 10
225.563639146
 20
214.3428328821
 10
224.4865649374
 20
214.9076708991
 10
223.4084878662
 20
215.549018662
 10
222.33341845
 20
216.2644903149
 10
221.2653560175
 20
217.0514242563
 10
220.2082738311
 20
217.9068930402
 10
219.166104306
 20
218.8277142665
 10
218.1427243814
 20
219.8104624199
 10
217.1419410976
 20
220.8514816127
 10
216.1674774344
 20
221.946899185
 10
215.2229584605
 20
223.0926401116
 10
214.3118978484
 20
224.2844421609
 10
213.4376848037
 20
225.5178717511
 10
212.6035714561
 20
226.7883404431
 10
211.8126607621
 20
228.0911220098
 10
211.0678949615
 20
229.4213700184
 10
210.372044632
 20
230.7741358588
 10
209.7276983824
 20
232.1443871532
 10
209.1372532232
 20
233.5270264769
 10
208.6029056491
 20
234.9169103208
 10
208.1266434682
 20
236.3088682256
 10
207.710238407
 20
237.6977220165
 10
207.3552395199
 20
239.0783050663
 10
207.0629674259
 20
240.4454815152
 10
206.8345093964
 20
241.7941653772
 10
206.6707153103
 20
243.1193394596
 10
206.5721944923
 20
244.4160740278
 10
206.5393134465
 20
245.679545144
  0
LWPOLYLINE
  5
C4
330
1F
100
AcDbEntity
  8
0
  6
Continuous
 62
     7
370
    25
100
AcDbPolyline
 90
       55
 70
   128
 43
0.0
 10
226.1711231102
 20
279.9599330441
 10
225.6299609241
 20
279.6088849466
 10
225.1630538715
 20
279.2239423554
 10
224.7767160693
 20
278.8103109585
 10
224.4761720735
 20
278.3735844111
 10
224.2654862262
 20
277.9196686904
 10
224.1475076919
 20
277.454702228
 10
224.123831928
 20
276.9849728975
 10
224.1947791085
 20
276.5168329824
 10
224.3593897945
 20
276.0566132719
 10
224.6154379089
 20
275.6105374482
 10
224.9594608403
 20
275.1846379214
 10
225.3868062685
 20
274.7846742522
 10
225.8916950798
 20
274.4160552628
 10
226.4672995192
 20
274.083765893
 10
227.1058355241
 20
273.7922997862
 10
227.7986679903
 20
273.5455985217
 10
228.5364275473
 20
273.3469983107
 10
229.3091372628
 20
273.1991848806
 10
230.1063475634
 20
273.1041571542
 10
230.9172775473
 20
273.0632002187
 10
231.7309607778
 20
273.0768679463
 10
232.5363935849
 20
273.1449755044
 10
233.3226838716
 20
273.2666018552
 10
234.0791984107
 20
273.4401022109
 10
234.7957066409
 20
273.6631302768
 10
235.4625190174
 20
273.932669981
 10
236.0706180468
 20
274.2450762613
 10
236.611780233
 20
274.5961243587
 10
237.0786872856
 20
274.98106695
 10
237.4650250878
 20
275.3946983468
 10
237.7655690835
 20
275.8314248943
 10
237.9762549309
 20
276.285340615
 10
238.0942334652
 20
276.7503070774
 10
238.1179092291
 20
277.2200364079
 10
238.0469620486
 20
277.688176323
 10
237.8823513626
 20
278.1483960334
 10
237.6263032481
 20
278.5944718572
 10
237.2822803168
 20
279.0203713839
 10
236.8549348886
 20
279.4203350532
 10
236.3500460772
 20
279.7889540425
 10
235.7744416378
 20
280.1212434124
 10
235.135905633
 20
280.4127095192
 10
234.4430731668
 20
280.6594107837
 10
233.7053136097
 20
280.8580109946
 10
232.9326038942
 20
281.0058244248
 10
232.1353935937
 20
281.1008521511
 10
231.3244636097
 20
281.1418090866
 10
230.5107803793
 20
281.1281413591
 10
229.7053475722
 20
281.0600338009
 10
228.9190572855
 20
280.9384074501
 10
228.1625427463
 20
280.7649070945
 10
227.4460345162
 20
280.5418790285
 10
226.7792221397
 20
280.2723393244
 10
226.1711231102
 20
279.9599330441
  0
LWPOLYLINE
  5
C5
330
1F
100
AcDbEntity
  8
0
  6
Continuous
 62
     7
370
    25
100
AcDbPolyline
 90
       46
 70
   128
 43
0.0
 10
227.7621133679
 20
279.0414739183
 10
227.3273519058
 20
278.7527516373
 10
226.9664269696
 20
278.4319091759
 10
226.6863635527
 20
278.0851913677
 10
226.4926127708
 20
277.7193466803
 10
226.3889457626
 20
277.3414958645
 10
226.3773802884
 20
276.9589933566
 10
226.4581414572
 20
276.5792841329
 10
226.6296573444
 20
276.2097588014
 10
226.8885895886
 20
275.8576097524
 10
227.2298983682
 20
275.5296911666
 10
227.6469404958
 20
275.2323856063
 10
228.131598721
 20
274.971479786
 10
228.6744397227
 20
274.7520519407
 10
229.2648977182
 20
274.5783729838
 10
229.8914801143
 20
274.4538233787
 10
230.5419911974
 20
274.3808273418
 10
231.2037695091
 20
274.3608056579
 10
231.8639342875
 20
274.3941480263
 10
232.509636176
 20
274.4802054757
 10
233.1283073218
 20
274.6173029958
 10
233.7079059949
 20
274.8027721392
 10
234.2371509662
 20
275.0330029601
 10
234.7057410846
 20
275.3035142774
 10
235.1045557763
 20
275.6090408961
 10
235.425832567
 20
275.943636088
 10
235.6633181694
 20
276.3007873383
 10
235.8123901964
 20
276.6735431042
 10
235.8701471305
 20
277.0546481187
 10
235.8354647988
 20
277.4366846062
 10
235.7090182534
 20
277.812216661
 10
235.4932686324
 20
278.1739349789
 10
235.1924152569
 20
278.5147991242
 10
234.8123138955
 20
278.8281745641
 10
234.3603627888
 20
279.1079618021
 10
233.8453586512
 20
279.3487150978
 10
233.2773254523
 20
279.5457484622
 10
232.6673193122
 20
279.6952268651
 10
232.0272133066
 20
279.7942408792
 10
231.3694663707
 20
279.8408633095
 10
230.7068808005
 20
279.8341867034
 10
230.0523530704
 20
279.7743410135
 10
229.4186228182
 20
279.6624910679
 10
228.8180248824
 20
279.5008138987
 10
228.2622492186
 20
279.292456368
 10
227.7621133679
 20
279.0414739183
  0
LWPOLYLINE
  5
C6
330
1F
100
AcDbEntity
  8
0
  6
Continuous
 62
     7
370
    25
100
AcDbPolyline
 90
       29
 70
   128
 43
0.0
 10
224.1214036143
 20
201.7675733044
 10
224.123831928
 20
201.6999100416
 10
224.1947791085
 20
201.2317701265
 10
224.3593897945
 20
200.7715504161
 10
224.6154379089
 20
200.3254745923
 10
224.9594608403
 20
199.8995750656
 10
225.3868062685
 20
199.4996113963
 10
225.8916950798
 20
199.130992407
 10
226.4672995192
 20
198.7987030371
 10
227.1058355241
 20
198.5072369303
 10
227.7986679903
 20
198.2605356658
 10
228.5364275473
 20
198.0619354549
 10
229.3091372628
 20
197.9141220247
 10
230.1063475634
 20
197.8190942984
 10
230.9172775473
 20
197.7781373629
 10
231.7309607778
 20
197.7918050904
 10
232.5363935849
 20
197.8599126486
 10
233.3226838716
 20
197.9815389994
 10
234.0791984107
 20
198.1550393551
 10
234.7957066409
 20
198.378067421
 10
235.4625190174
 20
198.6476071251
 10
236.0706180468
 20
198.9600134054
 10
236.611780233
 20
199.3110615029
 10
237.0786872856
 20
199.6960040941
 10
237.4650250878
 20
200.109635491
 10
237.7655690835
 20
200.5463620384
 10
237.9762549309
 20
201.0002777591
 10
238.0942334652
 20
201.4652442215
 10
238.1203375428
 20
201.7675733044
  0
LWPOLYLINE
  5
C7
330
1F
100
AcDbEntity
  8
0
  6
Continuous
 62
     1
370
    25
100
AcDbPolyline
 90
       59
 70
   128
 43
0.0
 10
209.5450743581
 20
265.026310036
 10
209.5580403237
 20
265.0319359884
 10
210.5144469456
 20
265.3954552497
 10
211.5116992657
 20
265.675317252
 10
212.5469704638
 20
265.8707286957
 10
213.6173259513
 20
265.9811356661
 10
214.7197316893
 20
266.0062252026
 10
215.8510627888
 20
265.9459261861
 10
217.0081123691
 20
265.8004095407
 10
218.1876006473
 20
265.5700877492
 10
219.3861842357
 20
265.2556136838
 10
220.6004656191
 20
264.8578787553
 10
221.8270027848
 20
264.3780103866
 10
223.06231898
 20
263.8173688167
 10
224.3029125668
 20
263.1775432451
 10
225.5452669478
 20
262.4603473269
 10
226.7858605346
 20
261.6678140318
 10
228.0211767298
 20
260.8021898816
 10
229.2477138955
 20
259.8659285819
 10
230.4619952789
 20
258.8616840672
 10
231.6605788674
 20
257.7923029776
 10
232.8400671456
 20
256.6608165899
 10
233.9971167258
 20
255.4704322254
 10
235.1284478254
 20
254.2245241578
 10
236.2308535633
 20
252.9266240488
 10
237.3012090508
 20
251.5804109374
 10
238.3364802489
 20
250.189700811
 10
239.333732569
 20
248.7584357883
 10
240.290139191
 20
247.2906729457
 10
241.2029890763
 20
245.7905728164
 10
242.0696946529
 20
244.2623875971
 10
242.8877991497
 20
242.710449095
 10
243.6549835604
 20
241.1391564483
 10
244.3690732176
 20
239.5529636568
 10
245.0280439566
 20
237.9563669562
 10
245.6300278532
 20
236.3538920733
 10
246.1733185186
 20
234.7500813974
 10
246.6563759365
 20
233.149481104
 10
247.077830828
 20
231.5566282685
 10
247.4364885335
 20
229.9760380054
 10
247.7313323988
 20
228.4121906695
 10
247.961526657
 20
226.869519156
 10
248.1264187973
 20
225.3523963349
 10
248.225541415
 20
223.8651226557
 10
248.2586135365
 20
222.4119139571
 10
248.225541415
 20
220.9968895172
 10
248.1264187973
 20
219.6240603764
 10
247.961526657
 20
218.2973179681
 10
247.7313323988
 20
217.0204230878
 10
247.4364885335
 20
215.7969952328
 10
247.077830828
 20
214.6305023422
 10
246.6563759365
 20
213.5242509669
 10
246.1733185186
 20
212.4813768966
 10
245.6300278532
 20
211.5048362711
 10
245.0280439566
 20
210.597397201
 10
244.3690732176
 20
209.7616319209
 10
243.6549835604
 20
208.9999094982
 10
242.8877991497
 20
208.314389118
 10
242.3961635592
 20
207.9355677733
  0
LWPOLYLINE
  5
C8
330
1F
100
AcDbEntity
  8
0
  6
Continuous
 62
     1
370
    25
100
AcDbPolyline
 90
       61
 70
   128
 43
0.0
 10
252.9082901723
 20
290.1416684505
 10
253.1280499418
 20
290.2651980925
 10
254.0408998272
 20
290.7113441782
 10
254.9973064491
 20
291.0748634396
 10
255.9945587692
 20
291.3547254418
 10
257.0298299673
 20
291.5501368855
 10
258.1001854548
 20
291.6605438559
 10
259.2025911928
 20
291.6856333924
 10
260.3339222923
 20
291.6253343759
 10
261.4909718726
 20
291.4798177305
 10
262.6704601508
 20
291.249495939
 10
263.8690437393
 20
290.9350218736
 10
265.0833251226
 20
290.5372869451
 10
266.3098622883
 20
290.0574185764
 10
267.5451784835
 20
289.4967770065
 10
268.7857720703
 20
288.8569514349
 10
270.0281264513
 20
288.1397555167
 10
271.2687200381
 20
287.3472222216
 10
272.5040362333
 20
286.4815980714
 10
273.730573399
 20
285.5453367717
 10
274.9448547824
 20
284.541092257
 10
276.1434383709
 20
283.4717111674
 10
277.3229266491
 20
282.3402247797
 10
278.4799762293
 20
281.1498404152
 10
279.6113073289
 20
279.9039323476
 10
280.7137130668
 20
278.6060322386
 10
281.7840685543
 20
277.2598191273
 10
282.8193397524
 20
275.8691090008
 10
283.8165920725
 20
274.4378439781
 10
284.7729986945
 20
272.9700811355
 10
285.6858485798
 20
271.4699810062
 10
286.5525541564
 20
269.9417957869
 10
287.3706586532
 20
268.3898572848
 10
288.1378430639
 20
266.8185646381
 10
288.8519327212
 20
265.2323718466
 10
289.5109034601
 20
263.635775146
 10
290.1128873567
 20
262.0333002631
 10
290.6561780221
 20
260.4294895872
 10
291.13923544
 20
258.8288892938
 10
291.5606903315
 20
257.2360364583
 10
291.919348037
 20
255.6554461952
 10
292.2141919024
 20
254.0915988593
 10
292.4443861605
 20
252.5489273458
 10
292.6092783008
 20
251.0318045247
 10
292.7084009185
 20
249.5445308455
 10
292.74147304
 20
248.0913221469
 10
292.7084009185
 20
246.676297707
 10
292.6092783008
 20
245.3034685662
 10
292.4443861605
 20
243.9767261579
 10
292.2141919024
 20
242.6998312776
 10
291.919348037
 20
241.4764034226
 10
291.5606903315
 20
240.309910532
 10
291.13923544
 20
239.2036591567
 10
290.6561780221
 20
238.1607850864
 10
290.1128873567
 20
237.1842444609
 10
289.5109034601
 20
236.2768053908
 10
288.8519327212
 20
235.4410401107
 10
288.1378430639
 20
234.679317688
 10
287.3706586532
 20
233.9937973078
 10
286.5525541564
 20
233.386422152
 10
285.9056083493
 20
232.9824435334
  0
ARC
  5
C9
330
1F
100
AcDbEntity
  8
0
  6
Continuous
 62
     7
370
    25
100
AcDbCircle
 10
21.1896400831
 20
167.4478425974
 30
0.0
 40
3.0
100
AcDbArc
 50
26.600134961
 51
90.0
  0
ARC
  5
CA
330
1F
100
AcDbEntity
  8
0
  6
Continuous
 62
     7
370
    25
100
AcDbCircle
 10
21.1896400831
 20
107.4478425974
 30
0.0
 40
3.0
100
AcDbArc
 50
270.0
 51
333.399865039
  0
LINE
  5
CB
330
1F
100
AcDbEntity
  8
0
  6
Continuous
 62
     7
370
    25
100
AcDbLine
 10
-40.1573820318
 20
170.4478425974
 30
0.0
 11
-41.7186231199
 21
170.4478425974
 31
0.0
  0
LINE
  5
CC
330
1F
100
AcDbEntity
  8
0
  6
Continuous
 62
     7
370
    25
100
AcDbLine
 10
21.1896400831
 20
170.4478425974
 30
0.0
 11
-25.7458182262
 21
170.4478425974
 31
0.0
  0
LINE
  5
CD
330
1F
100
AcDbEntity
  8
0
  6
Continuous
 62
     7
370
    25
100
AcDbLine
 10
-25.7405191256
 20
104.4478425974
 30
0.0
 11
21.1896400831
 21
104.4478425974
 31
0.0
  0
LINE
  5
CE
330
1F
100
AcDbEntity
  8
0
  6
Continuous
 62
     7
370
    25
100
AcDbLine
 10
-41.7186231199
 20
104.4478425974
 30
0.0
 11
-40.1818264063
 21
104.4478425974
 31
0.0
  0
ARC
  5
CF
330
1F
100
AcDbEntity
  8
0
  6
Continuous
 62
     7
370
    25
100
AcDbCircle
 10
-41.7186231199
 20
169.4478425974
 30
0.0
 40
1.0
100
AcDbArc
 50
90.0
 51
180.0
  0
ARC
  5
D0
330
1F
100
AcDbEntity
  8
0
  6
Continuous
 62
     7
370
    25
100
AcDbCircle
 10
-41.7186231199
 20
105.4478425974
 30
0.0
 40
1.0
100
AcDbArc
 50
180.0
 51
270.0
  0
ARC
  5
D1
330
1F
100
AcDbEntity
  8
0
  6
Continuous
 62
     7
370
    25
100
AcDbCircle
 10
-38.7186231199
 20
137.4478425974
 30
0.0
 40
70.0
100
AcDbArc
 50
333.399865039
 51
0.0
  0
ARC
  5
D2
330
1F
100
AcDbEntity
  8
0
  6
Continuous
 62
     7
370
    25
100
AcDbCircle
 10
-38.7186231199
 20
137.4478425974
 30
0.0
 40
70.0
100
AcDbArc
 50
0.0
 51
26.600134961
  0
LINE
  5
D3
330
1F
100
AcDbEntity
  8
0
  6
Continuous
 62
     7
370
    25
100
AcDbLine
 10
-25.7263219443
 20
170.4439271376
 30
0.0
 11
-25.9550516394
 21
183.5478425974
 31
0.0
  0
LINE
  5
D4
330
1F
100
AcDbEntity
  8
0
  6
Continuous
 62
     7
370
    25
100
AcDbLine
 10
-39.9550516394
 20
183.5478425974
 30
0.0
 11
-40.1838058272
 21
170.4425239555
 31
0.0
  0
LINE
  5
D5
330
1F
100
AcDbEntity
  8
0
  6
Continuous
 62
     7
370
    25
100
AcDbLine
 10
-40.1837195721
 20
104.4482196867
 30
0.0
 11
-39.9550516394
 21
91.3478425974
 31
0.0
  0
LINE
  5
D6
330
1F
100
AcDbEntity
  8
0
  6
Continuous
 62
     7
370
    25
100
AcDbLine
 10
-25.9550516394
 20
91.3478425974
 30
0.0
 11
-25.7263407133
 21
104.4506827796
 31
0.0
  0
SPLINE
  5
D7
330
1F
100
AcDbEntity
  8
0
  6
Continuous
 62
     7
370
    25
100
AcDbSpline
210
0.0
220
0.0
230
1.0
 70
     8
 71
     3
 72
    22
 73
    18
 74
     0
 42
0.00000001
 43
0.00000001
 40
0.0
 40
0.0
 40
0.0
 40
0.0
 40
0.0707180939387096
 40
0.1434568121760925
 40
0.214184686358921
 40
0.2870330314564716
 40
0.3565402735536123
 40
0.4281077467503834
 40
0.4969511903091664
 40
0.5677252334810832
 40
0.6378083274657796
 40
0.7098475364731137
 40
0.7812342534887285
 40
0.8547151884274806
 40
0.9255948116388989
 40
0.9986113092282167
 40
0.9999999999999999
 40
0.9999999999999999
 40
0.9999999999999999
 40
0.9999999999999999
 10
-27.89012220076644
 20
104.8549418076587
 30
0.0
 10
-28.18794067400894
 20
104.8992898581907
 30
0.0
 10
-28.79208717172912
 20
104.98925311372
 30
0.0
 10
-29.8503017887264
 20
105.1086080255609
 30
0.0
 10
-30.99914890253078
 20
105.2000898048129
 30
0.0
 10
-32.19169746398261
 20
105.2509922687958
 30
0.0
 10
-33.40998584152113
 20
105.2567703199816
 30
0.0
 10
-34.59310639367408
 20
105.2177064915005
 30
0.0
 10
-35.7356627409518
 20
105.1383460291712
 30
0.0
 10
-36.7934436384256
 20
105.0288012154684
 30
0.0
 10
-37.75996391534052
 20
104.898611602962
 30
0.0
 10
-38.59667372973684
 20
104.762875062024
 30
0.0
 10
-39.28564568742372
 20
104.6353798608391
 30
0.0
 10
-39.7981629383314
 20
104.5312141856564
 30
0.0
 10
-40.09480173035911
 20
104.4674838326524
 30
0.0
 10
-40.2160602361938
 20
104.4407724787442
 30
0.0
 10
-40.18245363643565
 20
104.4481178675006
 30
0.0
 10
-40.18182640631926
 20
104.4482549610798
 30
0.0
  0
SPLINE
  5
D8
330
1F
100
AcDbEntity
  8
0
  6
Continuous
 62
     7
370
    25
100
AcDbSpline
210
0.0
220
0.0
230
1.0
 70
     8
 71
     3
 72
    13
 73
     9
 74
     0
 42
0.00000001
 43
0.00000001
 40
0.0
 40
0.0
 40
0.0
 40
0.0
 40
0.0361853681586276
 40
0.2489065065430294
 40
0.4533583232525966
 40
0.6635930824246367
 40
0.830308757138701
 40
1.0
 40
1.0
 40
1.0
 40
1.0
 10
-25.74051912558983
 20
104.450938052056
 30
0.0
 10
-25.73605621572209
 20
104.4499605131476
 30
0.0
 10
-25.70535741781778
 20
104.4432363644909
 30
0.0
 10
-25.84337337902095
 20
104.4736133091495
 30
0.0
 10
-26.16189660131966
 20
104.5417382968593
 30
0.0
 10
-26.64750541487523
 20
104.6392656956121
 30
0.0
 10
-27.22692925981717
 20
104.7473250255435
 30
0.0
 10
-27.66775815520377
 20
104.8188586385476
 30
0.0
 10
-27.89012220076644
 20
104.8549418076587
 30
0.0
  0
SPLINE
  5
D9
330
1F
100
AcDbEntity
  8
0
  6
Continuous
 62
     7
370
    25
100
AcDbSpline
210
0.0
220
0.0
230
1.0
 70
     8
 71
     3
 72
    12
 73
     8
 74
     0
 42
0.00000001
 43
0.00000001
 40
0.0
 40
0.0
 40
0.0
 40
0.0
 40
0.2094618894616495
 40
0.424927067294542
 40
0.634411615802549
 40
0.8501418897764538
 40
1.0
 40
1.0
 40
1.0
 40
1.0
 10
-27.89012220076644
 20
170.0407433871464
 30
0.0
 10
-27.6183845273987
 20
170.0852525234906
 30
0.0
 10
-27.06712103543666
 20
170.1755464515324
 30
0.0
 10
-26.44487916450922
 20
170.2963242762177
 30
0.0
 10
-25.99807149492868
 20
170.3884674359328
 30
0.0
 10
-25.7537284056635
 20
170.4418259899333
 30
0.0
 10
-25.74811798873186
 20
170.4430712193875
 30
0.0
 10
-25.74581822617024
 20
170.4435816506289
 30
0.0
  0
SPLINE
  5
DA
330
1F
100
AcDbEntity
  8
0
  6
Continuous
 62
     7
370
    25
100
AcDbSpline
210
0.0
220
0.0
230
1.0
 70
     8
 71
     3
 72
    22
 73
    18
 74
     0
 42
0.00000001
 43
0.00000001
 40
0.0
 40
0.0
 40
0.0
 40
0.0
 40
0.03553255371523
 40
0.1048640501393296
 40
0.176187327908213
 40
0.2459339563326575
 40
0.3176269759564544
 40
0.3887302507840926
 40
0.4618808151762977
 40
0.5331330106476152
 40
0.6065396251987113
 40
0.6762659762020725
 40
0.7480737499904134
 40
0.8168796424279077
 40
0.8876264419690028
 40
0.9433283250927014
 40
1.0
 40
1.0
 40
1.0
 40
1.0
 10
-40.15738203178862
 20
170.4420627093043
 30
0.0
 10
-40.16269915000294
 20
170.4432277799365
 30
0.0
 10
-40.17839108578363
 20
170.446666148768
 30
0.0
 10
-39.98753537675319
 20
170.4048466101582
 30
0.0
 10
-39.60877169217855
 20
170.325135633566
 30
0.0
 10
-39.03336667261545
 20
170.2120783280102
 30
0.0
 10
-38.29558098539715
 20
170.0815321888565
 30
0.0
 10
-37.39560466434173
 20
169.9444873078532
 30
0.0
 10
-36.37023354116666
 20
169.8185485067946
 30
0.0
 10
-35.23358430596429
 20
169.7169974386481
 30
0.0
 10
-34.04655638057785
 20
169.6541889936601
 30
0.0
 10
-32.82471979773424
 20
169.6358716413756
 30
0.0
 10
-31.63235899131286
 20
169.6632694122789
 30
0.0
 10
-30.47255917863404
 20
169.7326908257748
 30
0.0
 10
-29.46722000818136
 20
169.8280315910697
 30
0.0
 10
-28.59539393172584
 20
169.9347568435222
 30
0.0
 10
-28.12656146358096
 20
170.0052118620012
 30
0.0
 10
-27.89012220076644
 20
170.0407433871464
 30
0.0
  0
LINE
  5
DB
330
1F
100
AcDbEntity
  8
0
  6
Continuous
 62
     7
370
    25
100
AcDbLine
 10
-42.7186231199
 20
169.4478425974
 30
0.0
 11
-42.7186231199
 21
105.4478425974
 31
0.0
  0
LINE
  5
DC
330
1F
100
AcDbEntity
  8
0
  6
Continuous
 62
     7
370
    25
100
AcDbLine
 10
-39.9550516394
 20
183.5478425974
 30
0.0
 11
-25.9550516394
 21
183.5478425974
 31
0.0
  0
LINE
  5
DD
330
1F
100
AcDbEntity
  8
0
  6
Continuous
 62
     7
370
    25
100
AcDbLine
 10
-39.9550516394
 20
91.3478425974
 30
0.0
 11
-25.9550516394
 21
91.3478425974
 31
0.0
  0
LINE
  5
DE
330
1F
100
AcDbEntity
  8
0
  6
Continuous
 62
     1
370
    25
100
AcDbLine
 10
21.1896400831
 20
170.4478425974
 30
0.0
 11
21.1896400831
 21
104.4478425974
 31
0.0
  0
LINE
  5
DF
330
1F
100
AcDbEntity
  8
0
  6
Continuous
 62
     1
370
    25
100
AcDbLine
 10
23.8720996295
 20
168.7911261795
 30
0.0
 11
23.8720996295
 21
106.1045590153
 31
0.0
  0
LINE
  5
E0
330
1F
100
AcDbEntity
  8
0
  6
Continuous
 62
     1
370
    25
100
AcDbLine
 10
-41.7186231199
 20
170.4478425974
 30
0.0
 11
-41.7186231199
 21
104.4478425974
 31
0.0
  0
SPLINE
  5
E1
330
1F
100
AcDbEntity
  8
0
  6
Continuous
 62
     7
370
    25
100
AcDbSpline
210
0.0
220
0.0
230
1.0
 70
     8
 71
     3
 72
    67
 73
    63
 74
     0
 42
0.00000001
 43
0.00000001
 40
0.0
 40
0.0
 40
0.0
 40
0.0
 40
0.0124672113809446
 40
0.0288157952025396
 40
0.0451983020443132
 40
0.0616299571590377
 40
0.0781209395866212
 40
0.0946759274510844
 40
0.1112944364418592
 40
0.1279717814533891
 40
0.1447003879082347
 40
0.1614711589924956
 40
0.1782746638865854
 40
0.1951020153135483
 40
0.211945408267645
 40
0.2287983648541165
 40
0.2456557640690573
 40
0.2625130062375217
 40
0.2793673208125793
 40
0.296217071505761
 40
0.3130612721232636
 40
0.3298994339154952
 40
0.3467314402679261
 40
0.3635574474095604
 40
0.3803778078550386
 40
0.3971930126986774
 40
0.4140036489987674
 40
0.4308103689351012
 40
0.4476138679675534
 40
0.4644148697524027
 40
0.4812141160329042
 40
0.4980123600937646
 40
0.5148103626544956
 40
0.5316088041462486
 40
0.5484082830478505
 40
0.5652095697907145
 40
0.5820134343101342
 40
0.5988206424710462
 40
0.6156319503811785
 40
0.6324480954808218
 40
0.6492697830642001
 40
0.666097666526404
 40
0.6829323191735422
 40
0.6997741948895455
 40
0.7166235743549862
 40
0.7334804929465774
 40
0.7503446460855816
 40
0.767215267972183
 40
0.7840909808857122
 40
0.8009696153916113
 40
0.8178467881155904
 40
0.83471762317117
 40
0.8515759020662838
 40
0.8684139348270621
 40
0.8852227000419711
 40
0.901992268998596
 40
0.9187125882394533
 40
0.9353746321678813
 40
0.9519718288560011
 40
0.9685015330548368
 40
0.9849662231319948
 40
1.0
 40
1.0
 40
1.0
 40
1.0
 10
60.02426062045535
 20
3.733590925132008
 30
0.0
 10
60.22695561378904
 20
3.883044283434368
 30
0.0
 10
60.69544990958731
 20
4.228479780882894
 30
0.0
 10
61.37530164694952
 20
4.851359014817515
 30
0.0
 10
62.07079791243147
 20
5.586442999871613
 30
0.0
 10
62.71522970328648
 20
6.389701541497117
 30
0.0
 10
63.30888296898156
 20
7.256629056324702
 30
0.0
 10
63.84964607107926
 20
8.186155061714679
 30
0.0
 10
64.33608407645328
 20
9.175940998676174
 30
0.0
 10
64.76668319371852
 20
10.22360968237309
 30
0.0
 10
65.14012841026171
 20
11.32642053107466
 30
0.0
 10
65.45528912977488
 20
12.48139876326006
 30
0.0
 10
65.71126135566533
 20
13.68536259047794
 30
0.0
 10
65.90737139826948
 20
14.93498259470437
 30
0.0
 10
66.04317101483393
 20
16.22682530761222
 30
0.0
 10
66.11842270599891
 20
17.55738763850216
 30
0.0
 10
66.13308193472393
 20
18.9230994034458
 30
0.0
 10
66.08728396649197
 20
20.32035443536487
 30
0.0
 10
65.98132833014067
 20
21.74552466706187
 30
0.0
 10
65.81566177582815
 20
23.19498394319344
 30
0.0
 10
65.59086832981022
 20
24.66508777975185
 30
0.0
 10
65.30766423035236
 20
26.15216582060517
 30
0.0
 10
64.96689425654066
 20
27.652523746397
 30
0.0
 10
64.56952911608789
 20
29.16244641333958
 30
0.0
 10
64.11666339703612
 20
30.67820224587055
 30
0.0
 10
63.60951371041062
 20
32.19604877582636
 30
0.0
 10
63.04941675874465
 20
33.712239159098
 30
0.0
 10
62.43782715205981
 20
35.22302948139455
 30
0.0
 10
61.77631485859121
 20
36.72468666852588
 30
0.0
 10
61.06656222543365
 20
38.21349683134333
 30
0.0
 10
60.31036053821482
 20
39.68577389401766
 30
0.0
 10
59.50960611289533
 20
41.1378683722355
 30
0.0
 10
58.66629735362551
 20
42.56617377202038
 30
0.0
 10
57.78253181667269
 20
43.96713322080132
 30
0.0
 10
56.8604985386747
 20
45.33725333895111
 30
0.0
 10
55.90247058187794
 20
46.6731149785479
 30
0.0
 10
54.91079693938993
 20
47.97138311809559
 30
0.0
 10
53.88789933762828
 20
49.22880971633961
 30
0.0
 10
52.83626586698765
 20
50.44224080948367
 30
0.0
 10
51.75844451656142
 20
51.60862304682967
 30
0.0
 10
50.65703673421459
 20
52.7250095884861
 30
0.0
 10
49.53469116559746
 20
53.78856529905896
 30
0.0
 10
48.3940977684933
 20
54.79657118731137
 30
0.0
 10
47.23798255105299
 20
55.74642807191263
 30
0.0
 10
46.06910324301761
 20
56.63565950498091
 30
0.0
 10
44.89024627288502
 20
57.46191406880708
 30
0.0
 10
43.70422548039675
 20
58.22296729020967
 30
0.0
 10
42.5138830188065
 20
58.91672360514371
 30
0.0
 10
41.32209286493156
 20
59.54121906658481
 30
0.0
 10
40.13179584978263
 20
60.09461247861545
 30
0.0
 10
38.94599158954138
 20
60.57520939600798
 30
0.0
 10
37.76774732880722
 20
60.98147941113134
 30
0.0
 10
36.60017942928027
 20
61.31208523917422
 30
0.0
 10
35.44647621206342
 20
61.56590105918865
 30
0.0
 10
34.30989180227413
 20
61.74205283534329
 30
0.0
 10
33.19373592195457
 20
61.83993912053997
 30
0.0
 10
32.10129983841498
 20
61.85934003558036
 30
0.0
 10
31.03593298891474
 20
61.80017867333304
 30
0.0
 10
30.00047775385002
 20
61.66350844037306
 30
0.0
 10
28.99903445227879
 20
61.44784054348746
 30
0.0
 10
28.0570366054969
 20
61.17055334855886
 30
0.0
 10
27.468293498575
 20
60.92713661891104
 30
0.0
 10
27.1872946640143
 20
60.81095722497938
 30
0.0
  0
LINE
  5
E2
330
1F
100
AcDbEntity
  8
0
  6
Continuous
 62
     7
370
    25
100
AcDbLine
 10
14.5133921653
 20
-22.62276897
 30
0.0
 11
31.7669947986
 21
-12.6624761806
 31
0.0
  0
LINE
  5
E3
330
1F
100
AcDbEntity
  8
0
  6
Continuous
 62
     7
370
    25
100
AcDbLine
 10
43.3788310913
 20
-5.9591057741
 30
0.0
 11
58.9962516688
 21
3.0566392198
 31
0.0
  0
LINE
  5
E4
330
1F
100
AcDbEntity
  8
0
  6
Continuous
 62
     7
370
    25
100
AcDbLine
 10
25.9989334919
 20
60.2158641369
 30
0.0
 11
-18.4839260117
 21
34.5364559471
 31
0.0
  0
LINE
  5
E5
330
1F
100
AcDbEntity
  8
0
  6
Continuous
 62
     7
370
    25
100
AcDbLine
 10
29.0659072429
 20
1.3793602382
 30
0.0
 11
29.3013447949
 21
-9.6334736646
 31
0.0
  0
LINE
  5
E6
330
1F
100
AcDbEntity
  8
0
  6
Continuous
 62
     7
370
    25
100
AcDbLine
 10
43.3002787234
 20
-9.6334736646
 30
0.0
 11
43.5360570172
 21
1.3952987877
 31
0.0
  0
SPLINE
  5
E7
330
1F
100
AcDbEntity
  8
0
  6
Continuous
 62
     7
370
    25
100
AcDbSpline
210
0.0
220
0.0
230
1.0
 70
     8
 71
     3
 72
    24
 73
    20
 74
     0
 42
0.00000001
 43
0.00000001
 40
0.0
 40
0.0
 40
0.0
 40
0.0
 40
0.0429076287355542
 40
0.102790530239494
 40
0.1627298830202154
 40
0.2228739308032981
 40
0.2833563416753044
 40
0.344288130159731
 40
0.4057508370206115
 40
0.467791710758249
 40
0.5304217798110702
 40
0.593617508229358
 40
0.6573261287004745
 40
0.7214738969499498
 40
0.7859757668431862
 40
0.8507447095794766
 40
0.915699216179083
 40
0.9807682335393108
 40
1.0
 40
1.0
 40
1.0
 40
1.0
 10
-18.50813011260516
 20
34.51262819252354
 30
0.0
 10
-18.72281158218016
 20
34.38710525557698
 30
0.0
 10
-19.23710758828694
 20
34.08639953899046
 30
0.0
 10
-20.00033354659486
 20
33.52795715039591
 30
0.0
 10
-20.80171242573581
 20
32.8525457650278
 30
0.0
 10
-21.55275632308544
 20
32.10802010307093
 30
0.0
 10
-22.2540173602585
 20
31.29888859211481
 30
0.0
 10
-22.90351574567978
 20
30.42546969038719
 30
0.0
 10
-23.49979045721966
 20
29.489279484197
 30
0.0
 10
-24.04108193469454
 20
28.49175953175205
 30
0.0
 10
-24.52561103998087
 20
27.43479588803241
 30
0.0
 10
-24.95160832805395
 20
26.32071275508896
 30
0.0
 10
-25.31743165135897
 20
25.15233647835113
 30
0.0
 10
-25.62168728680092
 20
23.93296883362899
 30
0.0
 10
-25.86322803629551
 20
22.66627045221911
 30
0.0
 10
-26.04150884640555
 20
21.35627141172036
 30
0.0
 10
-26.15541963724544
 20
20.00676583312663
 30
0.0
 10
-26.19536948337518
 20
18.94843551318969
 30
0.0
 10
-26.19789435332803
 20
18.34144056886948
 30
0.0
 10
-26.19847035875854
 20
18.20296516587935
 30
0.0
  0
SPLINE
  5
E8
330
1F
100
AcDbEntity
  8
0
  6
Continuous
 62
     7
370
    25
100
AcDbSpline
210
0.0
220
0.0
230
1.0
 70
     8
 71
     3
 72
    54
 73
    50
 74
     0
 42
0.00000001
 43
0.00000001
 40
0.0
 40
0.0
 40
0.0
 40
0.0
 40
0.0117614408039885
 40
0.0338386989904248
 40
0.0558999663924512
 40
0.0779453048099397
 40
0.0999703325971299
 40
0.1219728119150815
 40
0.1439521180876535
 40
0.1659088114831424
 40
0.1878443036062434
 40
0.2097606046465364
 40
0.2316601375394479
 40
0.2535456042730553
 40
0.2754198920608208
 40
0.2972860091790435
 40
0.3191470422850262
 40
0.3410061286974551
 40
0.3628664383790199
 40
0.3847301030388985
 40
0.4066003221272192
 40
0.4284802968134636
 40
0.4503732100051952
 40
0.4722821990498933
 40
0.4942103134571145
 40
0.5161604509336151
 40
0.5381352632380805
 40
0.5601370211486405
 40
0.5821674253390615
 40
0.6042273475616262
 40
0.6263164850599795
 40
0.6484329121413684
 40
0.6705725189808349
 40
0.6927283430520015
 40
0.714887405604927
 40
0.7370312725074218
 40
0.7591385494039623
 40
0.7811829198966989
 40
0.8031339740401191
 40
0.8249590591033996
 40
0.846626184573539
 40
0.8681076924991455
 40
0.8893840713461685
 40
0.9104471264276883
 40
0.9313018423028205
 40
0.951966637474662
 40
0.9724721312196274
 40
0.9928588237393411
 40
1.0
 40
1.0
 40
1.0
 40
1.0
 10
-26.19847035875854
 20
18.20296516587935
 30
0.0
 10
-26.1966573490445
 20
17.95174513619486
 30
0.0
 10
-26.19144116073878
 20
17.22896302926317
 30
0.0
 10
-26.13408598217555
 20
16.01364618291307
 30
0.0
 10
-26.00687002635575
 20
14.55224792472346
 30
0.0
 10
-25.81712343885144
 20
13.07086722991089
 30
0.0
 10
-25.56688956568025
 20
11.57359055160012
 30
0.0
 10
-25.25693663343939
 20
10.06395164123788
 30
0.0
 10
-24.88850077974174
 20
8.54562385716175
 30
0.0
 10
-24.46280703449748
 20
7.022209053921684
 30
0.0
 10
-23.98119308969888
 20
5.497305895928902
 30
0.0
 10
-23.44507436638069
 20
3.974498512560591
 30
0.0
 10
-22.85595273356357
 20
2.457362081616572
 30
0.0
 10
-22.21541378467552
 20
0.9494602287770243
 30
0.0
 10
-21.52512679184353
 20
-0.5456582605099236
 30
0.0
 10
-20.78684318756765
 20
-2.024464688847316
 30
0.0
 10
-20.00239448630588
 20
-3.483456663626379
 30
0.0
 10
-19.17368932861734
 20
-4.919164980675954
 30
0.0
 10
-18.30272378456468
 20
-6.328138053980435
 30
0.0
 10
-17.39156574038993
 20
-7.706973944998384
 30
0.0
 10
-16.44234915450077
 20
-9.052328103926063
 30
0.0
 10
-15.45725121242113
 20
-10.36094037964332
 30
0.0
 10
-14.43850028454019
 20
-11.62961773833833
 30
0.0
 10
-13.38836980672166
 20
-12.85523857012127
 30
0.0
 10
-12.30917234310296
 20
-14.03475577212024
 30
0.0
 10
-11.20325429011881
 20
-15.1651983338123
 30
0.0
 10
-10.07299178246599
 20
-16.24367123995555
 30
0.0
 10
-8.920788535037593
 20
-17.2673535774707
 30
0.0
 10
-7.749076560039623
 20
-18.23349486933011
 30
0.0
 10
-6.560320920717666
 20
-19.13940989604751
 30
0.0
 10
-5.357029881467461
 20
-19.98247265288887
 30
0.0
 10
-4.141771901224053
 20
-20.76011068512577
 30
0.0
 10
-2.917200756015609
 20
-21.46980188270786
 30
0.0
 10
-1.686134274458313
 20
-22.10905361079709
 30
0.0
 10
-0.4516179152110577
 20
-22.67542007846593
 30
0.0
 10
0.7830654453405208
 20
-23.16656733161341
 30
0.0
 10
2.014401464470482
 20
-23.58034575351021
 30
0.0
 10
3.238644969292211
 20
-23.91486444325934
 30
0.0
 10
4.451797640325248
 20
-24.16857020288882
 30
0.0
 10
5.649667404138793
 20
-24.34035207459156
 30
0.0
 10
6.827971160262662
 20
-24.42962799554085
 30
0.0
 10
7.982484326811274
 20
-24.43641460568321
 30
0.0
 10
9.1091606873335
 20
-24.36127159382752
 30
0.0
 10
10.20438501379643
 20
-24.20544461193573
 30
0.0
 10
11.26462155811122
 20
-23.9700010040589
 30
0.0
 10
12.28805946772645
 20
-23.65845119247263
 30
0.0
 10
13.26863295040282
 20
-23.26641767266744
 30
0.0
 10
14.01361494796109
 20
-22.91539038427824
 30
0.0
 10
14.41606703362851
 20
-22.67106291674473
 30
0.0
 10
14.52046964115148
 20
-22.60768040337626
 30
0.0
  0
LINE
  5
E9
330
1F
100
AcDbEntity
  8
0
  6
Continuous
 62
     7
370
    25
100
AcDbLine
 10
43.4584097744
 20
58.3545834499
 30
0.0
 11
43.3002787234
 21
65.7513261761
 31
0.0
  0
LINE
  5
EA
330
1F
100
AcDbEntity
  8
0
  6
Continuous
 62
     7
370
    25
100
AcDbLine
 10
29.3013447949
 20
65.7513261761
 30
0.0
 11
29.2100334623
 21
61.4801445771
 31
0.0
  0
LWPOLYLINE
  5
EB
330
1F
100
AcDbEntity
  8
0
  6
Continuous
 62
     7
370
    25
100
AcDbPolyline
 90
      117
 70
   128
 43
0.0
 10
20.5772823636
 20
45.1069855234
 10
20.6104674199
 20
46.502440306
 10
20.7099252515
 20
47.8554873288
 10
20.8753641313
 20
49.1621578717
 10
21.1062987987
 20
50.4186192449
 10
21.4020518824
 20
51.6211860307
 10
21.7617558877
 20
52.7663308935
 10
22.1843557408
 20
53.8506949262
 10
22.6686118835
 20
54.8710975021
 10
23.2131039091
 20
55.8245456047
 10
23.8162347287
 20
56.7082426065
 10
24.4762352556
 20
57.5195964719
 10
25.1911695946
 20
58.2562273602
 10
25.9589407201
 20
58.9159746061
 10
26.7772966271
 20
59.4969030572
 10
27.6438369368
 20
59.9973087503
 10
28.556019937
 20
60.4157239094
 10
29.5111700379
 20
60.7509212505
 10
30.5064856197
 20
61.0019175822
 10
31.5390472503
 20
61.1679766891
 10
32.6058262485
 20
61.248611491
 10
33.7036935676
 20
61.2435854724
 10
34.8294289738
 20
61.1529133752
 10
35.9797304911
 20
60.9768611565
 10
37.1512240869
 20
60.7159452076
 10
38.3404735686
 20
60.3709308401
 10
39.5439906628
 20
59.9428300406
 10
40.7582452462
 20
59.4328985024
 10
41.9796757012
 20
58.8426319425
 10
43.2046993615
 20
58.1737617146
 10
44.4297230219
 20
57.4282497302
 10
45.6511534768
 20
56.6082827045
 10
46.8654080603
 20
55.7162657419
 10
48.0689251544
 20
54.7548152821
 10
49.2581746362
 20
53.7267514247
 10
50.429668232
 20
52.6350896582
 10
51.5799697493
 20
51.4830320147
 10
52.7057051554
 20
50.2739576778
 10
53.8035724746
 20
49.0114130708
 10
54.8703514728
 20
47.6991014545
 10
55.9029131034
 20
46.3408720651
 10
56.8982286851
 20
44.9407088233
 10
57.8533787861
 20
43.5027186492
 10
58.7655617863
 20
42.0311194158
 10
59.6321020959
 20
40.5302275771
 10
60.4504580029
 20
39.0044455075
 10
61.2182291284
 20
37.4582485887
 10
61.9331634675
 20
35.8961720827
 10
62.5931639944
 20
34.322797829
 10
63.1962948139
 20
32.7427408054
 10
63.7407868395
 20
31.1606355914
 10
64.2250429822
 20
29.5811227741
 10
64.6476428353
 20
28.0088353368
 10
65.0073468407
 20
26.4483850695
 10
65.3030999244
 20
24.9043490416
 10
65.5340345917
 20
23.3812561769
 10
65.6994734716
 20
21.8835739691
 10
65.7989313031
 20
20.4156953782
 10
65.8321163595
 20
18.9819259451
 10
65.7989313031
 20
17.5864711625
 10
65.6994734716
 20
16.2334241397
 10
65.5340345917
 20
14.9267535968
 10
65.3030999244
 20
13.6702922236
 10
65.0073468407
 20
12.4677254378
 10
64.6476428353
 20
11.322580575
 10
64.2250429822
 20
10.2382165423
 10
63.7407868395
 20
9.2178139664
 10
63.1962948139
 20
8.2643658638
 10
62.5931639944
 20
7.380668862
 10
61.9331634675
 20
6.5693149966
 10
61.2182291284
 20
5.8326841083
 10
60.4504580029
 20
5.1729368624
 10
59.6321020959
 20
4.5920084113
 10
58.7655617863
 20
4.0916027182
 10
57.8533787861
 20
3.6731875592
 10
56.8982286851
 20
3.337990218
 10
55.9029131034
 20
3.0869938863
 10
54.8703514728
 20
2.9209347794
 10
53.8035724746
 20
2.8402999775
 10
52.7057051554
 20
2.8453259962
 10
51.5799697493
 20
2.9359980933
 10
50.429668232
 20
3.112050312
 10
49.2581746362
 20
3.3729662609
 10
48.0689251544
 20
3.7179806284
 10
46.8654080603
 20
4.1460814279
 10
45.6511534768
 20
4.6560129662
 10
44.4297230219
 20
5.246279526
 10
43.2046993615
 20
5.9151497539
 10
41.9796757012
 20
6.6606617383
 10
40.7582452462
 20
7.480628764
 10
39.5439906628
 20
8.3726457266
 10
38.3404735686
 20
9.3340961865
 10
37.1512240869
 20
10.3621600438
 10
35.9797304911
 20
11.4538218103
 10
34.8294289738
 20
12.6058794538
 10
33.7036935676
 20
13.8149537907
 10
32.6058262485
 20
15.0774983977
 10
31.5390472503
 20
16.389810014
 10
30.5064856197
 20
17.7480394034
 10
29.5111700379
 20
19.1482026452
 10
28.556019937
 20
20.5861928193
 10
27.6438369368
 20
22.0577920527
 10
26.7772966271
 20
23.5586838914
 10
25.9589407201
 20
25.084465961
 10
25.1911695946
 20
26.6306628798
 10
24.4762352556
 20
28.1927393858
 10
23.8162347287
 20
29.7661136395
 10
23.2131039091
 20
31.3461706631
 10
22.6686118835
 20
32.9282758771
 10
22.1843557408
 20
34.5077886944
 10
21.7617558877
 20
36.0800761317
 10
21.4020518824
 20
37.640526399
 10
21.1062987987
 20
39.1845624269
 10
20.8753641313
 20
40.7076552917
 10
20.7099252515
 20
42.2053374994
 10
20.6104674199
 20
43.6732160903
 10
20.5772823636
 20
45.1069855234
  0
ARC
  5
EC
330
1F
100
AcDbEntity
  8
0
  6
Continuous
 62
     7
370
    25
100
AcDbCircle
 10
31.5132508201
 20
50.6637757793
 30
0.0
 40
11.02947900478026
100
AcDbArc
 50
113.4811900582
 51
126.4384629333
  0
ARC
  5
ED
330
1F
100
AcDbEntity
  8
0
  6
Continuous
 62
     7
370
    25
100
AcDbCircle
 10
53.4831490482
 20
12.6065860519
 30
0.0
 40
11.02702075587602
100
AcDbArc
 50
293.7464772601
 51
306.0321009745
  0
SPLINE
  5
EE
330
1F
100
AcDbEntity
  8
0
  6
Continuous
 62
     7
370
    25
100
AcDbSpline
210
0.0
220
0.0
230
1.0
 70
     8
 71
     3
 72
    27
 73
    23
 74
     0
 42
0.00000001
 43
0.00000001
 40
0.0
 40
0.0
 40
0.0
 40
0.0
 40
0.0367620277074591
 40
0.0904471616205775
 40
0.144127325228772
 40
0.1974513610369224
 40
0.2507718153294855
 40
0.3030473588919463
 40
0.3553260587206858
 40
0.4075373656555803
 40
0.4597532974365915
 40
0.5129598910197922
 40
0.5661652038834459
 40
0.6198927022213357
 40
0.6736134497232363
 40
0.7264123242598086
 40
0.7792094267526615
 40
0.8309704374557434
 40
0.8827366421993385
 40
0.9349133697693608
 40
0.9870942556320749
 40
1.0
 40
1.0
 40
1.0
 40
1.0
 10
43.51454895271289
 20
1.395356642688455
 30
0.0
 10
43.51664746083586
 20
1.531538487529366
 30
0.0
 10
43.5218105085565
 20
1.866592403165675
 30
0.0
 10
43.29176386992997
 20
2.397954301798226
 30
0.0
 10
42.86643094989373
 20
2.978793374644458
 30
0.0
 10
42.24191056099544
 20
3.537414761183626
 30
0.0
 10
41.45917220646832
 20
4.05868679797225
 30
0.0
 10
40.53411417125423
 20
4.530265542530849
 30
0.0
 10
39.50318101637864
 20
4.939484631497761
 30
0.0
 10
38.38543482556936
 20
5.272665598897389
 30
0.0
 10
37.20713177853285
 20
5.519107121987314
 30
0.0
 10
35.99646596343371
 20
5.659420346233617
 30
0.0
 10
34.78194828009055
 20
5.682576158335294
 30
0.0
 10
33.60527562566942
 20
5.570566372824729
 30
0.0
 10
32.50458489449937
 20
5.323499756329699
 30
0.0
 10
31.51883965904703
 20
4.937837723436679
 30
0.0
 10
30.67495947508327
 20
4.434377997375848
 30
0.0
 10
29.99654608118619
 20
3.822535770364819
 30
0.0
 10
29.48443470672419
 20
3.12891677940965
 30
0.0
 10
29.17623132466712
 20
2.37082828495732
 30
0.0
 10
29.04150561947779
 20
1.775206037877397
 30
0.0
 10
29.07770261843107
 20
1.445604698413316
 30
0.0
 10
29.08487996366652
 20
1.380249484671636
 30
0.0
  0
LINE
  5
EF
330
1F
100
AcDbEntity
  8
0
  6
Continuous
 62
     7
370
    25
100
AcDbLine
 10
-18.5080619961
 20
34.5224817203
 30
0.0
 11
-18.4839260117
 21
34.5364559471
 31
0.0
  0
LWPOLYLINE
  5
F0
330
1F
100
AcDbEntity
  8
0
  6
Continuous
 62
     7
370
    25
100
AcDbPolyline
 90
      104
 70
   128
 43
0.0
 10
25.5270298319
 20
42.249557132
 10
25.5599108777
 20
43.4750646008
 10
25.6584316957
 20
44.6580494539
 10
25.8222257818
 20
45.7941109099
 10
26.0506838113
 20
46.8790227455
 10
26.3429559053
 20
47.9087490175
 10
26.6979547924
 20
48.8794590765
 10
27.1143598536
 20
49.7875418174
 10
27.5906220345
 20
50.6296191127
 10
28.1249696086
 20
51.4025583795
 10
28.7154147678
 20
52.103484233
 10
29.3597610174
 20
52.729789183
 10
30.0556113469
 20
53.279143334
 10
30.8003771475
 20
53.7495030525
 10
31.5912878415
 20
54.1391185693
 10
32.4254011891
 20
54.4465404891
 10
33.2996142338
 20
54.6706251824
 10
34.2106748459
 20
54.8105390391
 10
35.1551938198
 20
54.8657615707
 10
36.1296574831
 20
54.8360873457
 10
37.1304407668
 20
54.7216267541
 10
38.1538206914
 20
54.5228055969
 10
39.1959902165
 20
54.2403635019
 10
40.2530724029
 20
53.8753511721
 10
41.3211348354
 20
53.4291264774
 10
42.3962042516
 20
52.9033494029
 10
43.4742813228
 20
52.2999758741
 10
44.5513555314
 20
51.6212504799
 10
45.6234200906
 20
50.8696981235
 10
46.6864868498
 20
50.0481146289
 10
47.7366011308
 20
49.1595563407
 10
48.7698564397
 20
48.2073287542
 10
49.7824089986
 20
47.1949742185
 10
50.7704920457
 20
46.1262587589
 10
51.7304298471
 20
45.0051580671
 10
52.6586513711
 20
43.8358427115
 10
53.5517035727
 20
42.6226626218
 10
54.4062642391
 20
41.3701309077
 10
55.2191543483
 20
40.0829070694
 10
55.9873498959
 20
38.7657796642
 10
56.707993144
 20
37.4236484926
 10
57.3784032523
 20
36.0615063705
 10
57.9960862511
 20
34.6844205563
 10
58.5587443193
 20
33.2975138995
 10
59.0642843317
 20
31.9059457841
 10
59.5108256464
 20
30.5148929347
 10
59.8967071004
 20
29.1295301595
 10
60.2204931892
 20
27.7550110988
 10
60.4809794073
 20
26.3964490539
 10
60.677196729
 20
25.0588979648
 10
60.8084152129
 20
23.7473336095
 10
60.8741467176
 20
22.4666350934
 10
60.8741467176
 20
21.2215666991
 10
60.8084152129
 20
20.0167601629
 10
60.677196729
 20
18.8566974443
 10
60.4809794073
 20
17.7456940526
 10
60.2204931892
 20
16.6878829935
 10
59.8967071004
 20
15.6871993937
 10
59.5108256464
 20
14.7473658618
 10
59.0642843317
 20
13.8718786403
 10
58.5587443193
 20
13.0639945991
 10
57.9960862511
 20
12.3267191201
 10
57.3784032523
 20
11.6627949163
 10
56.707993144
 20
11.0746918294
 10
55.9873498959
 20
10.5645976415
 10
55.2191543483
 20
10.1344099365
 10
54.4062642391
 20
9.785729041
 10
53.5517035727
 20
9.5198520707
 10
52.6586513711
 20
9.3377681055
 10
51.7304298471
 20
9.2401545096
 10
50.7704920457
 20
9.2273744121
 10
49.7824089986
 20
9.2994753557
 10
48.7698564397
 20
9.4561891202
 10
47.7366011308
 20
9.6969327202
 10
46.6864868498
 20
10.0208105735
 10
45.6234200906
 20
10.4266178334
 10
44.5513555314
 20
10.9128448701
 10
43.4742813228
 20
11.4776828871
 10
42.3962042516
 20
12.11903065
 10
41.3211348354
 20
12.8345023029
 10
40.2530724029
 20
13.6214362443
 10
39.1959902165
 20
14.4769050282
 10
38.1538206914
 20
15.3977262545
 10
37.1304407668
 20
16.3804744079
 10
36.1296574831
 20
17.4214936007
 10
35.1551938198
 20
18.516911173
 10
34.2106748459
 20
19.6626520996
 10
33.2996142338
 20
20.8544541489
 10
32.4254011891
 20
22.0878837391
 10
31.5912878415
 20
23.3583524311
 10
30.8003771475
 20
24.6611339978
 10
30.0556113469
 20
25.9913820064
 10
29.3597610174
 20
27.3441478468
 10
28.7154147678
 20
28.7143991412
 10
28.1249696086
 20
30.0970384649
 10
27.5906220345
 20
31.4869223088
 10
27.1143598536
 20
32.8788802136
 10
26.6979547924
 20
34.2677340045
 10
26.3429559053
 20
35.6483170543
 10
26.0506838113
 20
37.0154935032
 10
25.8222257818
 20
38.3641773651
 10
25.6584316957
 20
39.6893514475
 10
25.5599108777
 20
40.9860860158
 10
25.5270298319
 20
42.249557132
  0
LWPOLYLINE
  5
F1
330
1F
100
AcDbEntity
  8
0
  6
Continuous
 62
     7
370
    25
100
AcDbPolyline
 90
       55
 70
   128
 43
0.0
 10
31.3510642908
 20
-6.7261767808
 10
31.9591633203
 20
-6.4137705005
 10
32.6259756968
 20
-6.1442307963
 10
33.3424839269
 20
-5.9212027304
 10
34.0989984661
 20
-5.7477023747
 10
34.8852887528
 20
-5.6260760239
 10
35.6907215599
 20
-5.5579684658
 10
36.5044047903
 20
-5.5443007382
 10
37.3153347743
 20
-5.5852576737
 10
38.1125450749
 20
-5.6802854
 10
38.8852547903
 20
-5.8280988302
 10
39.6230143474
 20
-6.0266990411
 10
40.3158468136
 20
-6.2734003057
 10
40.9543828184
 20
-6.5648664124
 10
41.5299872578
 20
-6.8971557823
 10
42.0348760692
 20
-7.2657747716
 10
42.4622214974
 20
-7.6657384409
 10
42.8062444287
 20
-8.0916379677
 10
43.0622925432
 20
-8.5377137914
 10
43.2269032292
 20
-8.9979335019
 10
43.2978504097
 20
-9.466073417
 10
43.2741746458
 20
-9.9358027474
 10
43.1561961115
 20
-10.4007692099
 10
42.9455102641
 20
-10.8546849306
 10
42.6449662684
 20
-11.291411478
 10
42.2586284662
 20
-11.7050428749
 10
41.7917214136
 20
-12.0899854661
 10
41.2505592274
 20
-12.4410335635
 10
40.642460198
 20
-12.7534398438
 10
39.9756478215
 20
-13.022979548
 10
39.2591395913
 20
-13.2460076139
 10
38.5026250522
 20
-13.4195079696
 10
37.7163347655
 20
-13.5411343204
 10
36.9109019584
 20
-13.6092418785
 10
36.0972187279
 20
-13.6229096061
 10
35.286288744
 20
-13.5819526706
 10
34.4890784434
 20
-13.4869249443
 10
33.7163687279
 20
-13.3391115141
 10
32.9786091709
 20
-13.1405113032
 10
32.2857767047
 20
-12.8938100386
 10
31.6472406998
 20
-12.6023439319
 10
31.0716362604
 20
-12.270054562
 10
30.5667474491
 20
-11.9014355727
 10
30.1394020209
 20
-11.5014719034
 10
29.7953790895
 20
-11.0755723767
 10
29.5393309751
 20
-10.6294965529
 10
29.3747202891
 20
-10.1692768424
 10
29.3037731086
 20
-9.7011369273
 10
29.3274488725
 20
-9.2314075969
 10
29.4454274068
 20
-8.7664411344
 10
29.6561132541
 20
-8.3125254138
 10
29.9566572499
 20
-7.8757988663
 10
30.3429950521
 20
-7.4621674694
 10
30.8099021047
 20
-7.0772248782
 10
31.3510642908
 20
-6.7261767808
  0
LWPOLYLINE
  5
F2
330
1F
100
AcDbEntity
  8
0
  6
Continuous
 62
     7
370
    25
100
AcDbPolyline
 90
       46
 70
   128
 43
0.0
 10
32.9420545485
 20
-7.6446359066
 10
33.4421903992
 20
-7.3936534568
 10
33.997966063
 20
-7.1852959262
 10
34.5985639988
 20
-7.023618757
 10
35.232294251
 20
-6.9117688114
 10
35.8868219811
 20
-6.8519231214
 10
36.5494075513
 20
-6.8452465153
 10
37.2071544872
 20
-6.8918689456
 10
37.8472604928
 20
-6.9908829598
 10
38.4572666329
 20
-7.1403613626
 10
39.0252998318
 20
-7.3373947271
 10
39.5403039694
 20
-7.5781480228
 10
39.9922550761
 20
-7.8579352608
 10
40.3723564375
 20
-8.1713107006
 10
40.673209813
 20
-8.5121748459
 10
40.888959434
 20
-8.8738931638
 10
41.0154059794
 20
-9.2494252186
 10
41.0500883111
 20
-9.6314617061
 10
40.992331377
 20
-10.0125667206
 10
40.84325935
 20
-10.3853224865
 10
40.6057737476
 20
-10.7424737368
 10
40.2844969569
 20
-11.0770689287
 10
39.8856822652
 20
-11.3825955474
 10
39.4170921468
 20
-11.6531068647
 10
38.8878471755
 20
-11.8833376856
 10
38.3082485024
 20
-12.0688068291
 10
37.6895773566
 20
-12.2059043491
 10
37.0438754681
 20
-12.2919617985
 10
36.3837106897
 20
-12.3253041669
 10
35.721932378
 20
-12.305282483
 10
35.0714212949
 20
-12.2322864461
 10
34.4448388988
 20
-12.107736841
 10
33.8543809033
 20
-11.9340578842
 10
33.3115399016
 20
-11.7146300389
 10
32.8268816764
 20
-11.4537242186
 10
32.4098395488
 20
-11.1564186582
 10
32.0685307692
 20
-10.8285000725
 10
31.809598525
 20
-10.4763510235
 10
31.6380826378
 20
-10.106825692
 10
31.557321469
 20
-9.7271164683
 10
31.5688869432
 20
-9.3446139604
 10
31.6725539514
 20
-8.9667631446
 10
31.8663047333
 20
-8.6009184572
 10
32.1463681502
 20
-8.2542006489
 10
32.5072930864
 20
-7.9333581875
 10
32.9420545485
 20
-7.6446359066
  0
LWPOLYLINE
  5
F3
330
1F
100
AcDbEntity
  8
0
  6
Continuous
 62
     7
370
    25
100
AcDbPolyline
 90
       22
 70
   128
 43
0.0
 10
31.3510642908
 20
68.5588860751
 10
31.9591633203
 20
68.8712923554
 10
32.6259756968
 20
69.1408320595
 10
33.3424839269
 20
69.3638601255
 10
34.0989984661
 20
69.5373604812
 10
34.8852887528
 20
69.6589868319
 10
35.6907215599
 20
69.7270943901
 10
36.5044047903
 20
69.7407621177
 10
37.3153347743
 20
69.6998051822
 10
38.1125450749
 20
69.6047774558
 10
38.8852547903
 20
69.4569640257
 10
39.6230143474
 20
69.2583638147
 10
40.3158468136
 20
69.0116625502
 10
40.9543828184
 20
68.7201964434
 10
41.5299872578
 20
68.3879070736
 10
42.0348760692
 20
68.0192880842
 10
42.4622214974
 20
67.6193244149
 10
42.8062444287
 20
67.1934248882
 10
43.0622925432
 20
66.7473490644
 10
43.2269032292
 20
66.287129354
 10
43.2978504097
 20
65.8189894389
 10
43.3002787234
 20
65.7513261761
  0
ARC
  5
F4
330
1F
100
AcDbEntity
  8
0
  6
Continuous
 62
     7
370
    25
100
AcDbCircle
 10
32.8920112721
 20
65.2818837315
 30
0.0
 40
3.621223820640474
100
AcDbArc
 50
115.1843483287
 51
172.551417826
  0
LWPOLYLINE
  5
F5
330
1F
100
AcDbEntity
  8
0
  6
Continuous
 62
     1
370
    25
100
AcDbPolyline
 90
       15
 70
   128
 43
0.0
 10
19.1630688012
 20
45.1069855234
 10
19.1961409226
 20
46.5220099633
 10
19.2952635404
 20
47.8948391041
 10
19.4601556807
 20
49.2215815124
 10
19.6903499388
 20
50.4984763927
 10
19.9851938041
 20
51.7219042477
 10
20.3438515097
 20
52.8883971383
 10
20.7653064012
 20
53.9946485136
 10
21.248363819
 20
55.0375225839
 10
21.7916544845
 20
56.0140632094
 10
22.393638381
 20
56.9215022795
 10
23.05260912
 20
57.7572675597
 10
23.7666987772
 20
58.5189899823
 10
24.533883188
 20
59.2045103625
 10
24.9621915961
 20
59.5369392603
  0
LWPOLYLINE
  5
F6
330
1F
100
AcDbEntity
  8
0
  6
Continuous
 62
     1
370
    25
100
AcDbPolyline
 90
       45
 70
   128
 43
0.0
 10
57.9236245864
 20
2.5131543389
 10
57.863642014
 20
2.4869634922
 10
56.907235392
 20
2.1234442308
 10
55.909983072
 20
1.8435822286
 10
54.8747118738
 20
1.6481707848
 10
53.8043563863
 20
1.5377638144
 10
52.7019506484
 20
1.512674278
 10
51.5706195488
 20
1.5729732945
 10
50.4135699686
 20
1.7184899398
 10
49.2340816904
 20
1.9488117313
 10
48.0354981019
 20
2.2632857967
 10
46.8212167186
 20
2.6610207252
 10
45.5946795529
 20
3.1408890939
 10
44.3593633576
 20
3.7015306638
 10
43.1187697709
 20
4.3413562354
 10
41.8764153898
 20
5.0585521536
 10
40.6358218031
 20
5.8510854487
 10
39.4005056078
 20
6.7167095989
 10
38.1739684421
 20
7.6529708986
 10
36.9596870588
 20
8.6572154133
 10
35.7611034703
 20
9.726596503
 10
34.5816151921
 20
10.8580828906
 10
33.4245656119
 20
12.0484672551
 10
32.2932345123
 20
13.2943753228
 10
31.1908287744
 20
14.5922754317
 10
30.1204732869
 20
15.9384885431
 10
29.0852020887
 20
17.3291986696
 10
28.0879497687
 20
18.7604636922
 10
27.1315431467
 20
20.2282265348
 10
26.2186932613
 20
21.7283266641
 10
25.3519876847
 20
23.2565118834
 10
24.533883188
 20
24.8084503855
 10
23.7666987772
 20
26.3797430322
 10
23.05260912
 20
27.9659358237
 10
22.393638381
 20
29.5625325244
 10
21.7916544845
 20
31.1650074072
 10
21.248363819
 20
32.7688180831
 10
20.7653064012
 20
34.3694183766
 10
20.3438515097
 20
35.962271212
 10
19.9851938041
 20
37.5428614751
 10
19.6903499388
 20
39.106708811
 10
19.4601556807
 20
40.6493803245
 10
19.2952635404
 20
42.1665031456
 10
19.1961409226
 20
43.6537768249
 10
19.1630688012
 20
45.1069855234
  0
LWPOLYLINE
  5
F7
330
1F
100
AcDbEntity
  8
0
  6
Continuous
 62
     1
370
    25
100
AcDbPolyline
 90
       16
 70
   128
 43
0.0
 10
-25.3197907023
 20
19.4275773336
 10
-25.2867185809
 20
20.8426017735
 10
-25.1875959631
 20
22.2154309143
 10
-25.0227038228
 20
23.5421733226
 10
-24.7925095647
 20
24.8190682029
 10
-24.4976656994
 20
26.0424960579
 10
-24.1390079938
 20
27.2089889485
 10
-23.7175531023
 20
28.3152403238
 10
-23.2344956845
 20
29.3581143941
 10
-22.6912050191
 20
30.3346550196
 10
-22.0892211225
 20
31.2420940897
 10
-21.4302503835
 20
32.0778593699
 10
-20.7161607263
 20
32.8395817925
 10
-19.9489763155
 20
33.5251021727
 10
-19.1308718188
 20
34.1324773285
 10
-18.5080619961
 20
34.5224817203
  0
LWPOLYLINE
  5
F8
330
1F
100
AcDbEntity
  8
0
  6
Continuous
 62
     1
370
    25
100
AcDbPolyline
 90
       46
 70
   128
 43
0.0
 10
14.5133921653
 20
-22.62276897
 10
14.2936323959
 20
-22.7462986119
 10
13.3807825105
 20
-23.1924446977
 10
12.4243758885
 20
-23.555963959
 10
11.4271235684
 20
-23.8358259612
 10
10.3918523703
 20
-24.031237405
 10
9.3214968828
 20
-24.1416443754
 10
8.2190911449
 20
-24.1667339119
 10
7.0877600453
 20
-24.1064348953
 10
5.9307104651
 20
-23.96091825
 10
4.7512221869
 20
-23.7305964585
 10
3.5526385984
 20
-23.4161223931
 10
2.3383572151
 20
-23.0183874646
 10
1.1118200493
 20
-22.5385190959
 10
-0.1234961459
 20
-21.977877526
 10
-1.3640897327
 20
-21.3380519544
 10
-2.6064441137
 20
-20.6208560362
 10
-3.8470377004
 20
-19.8283227411
 10
-5.0823538957
 20
-18.9626985909
 10
-6.3088910614
 20
-18.0264372912
 10
-7.5231724447
 20
-17.0221927765
 10
-8.7217560332
 20
-15.9528116868
 10
-9.9012443114
 20
-14.8213252992
 10
-11.0582938917
 20
-13.6309409347
 10
-12.1896249912
 20
-12.385032867
 10
-13.2920307292
 20
-11.0871327581
 10
-14.3623862166
 20
-9.7409196467
 10
-15.3976574148
 20
-8.3502095202
 10
-16.3949097348
 20
-6.9189444976
 10
-17.3513163568
 20
-5.451181655
 10
-18.2641662422
 20
-3.9510815257
 10
-19.1308718188
 20
-2.4228963064
 10
-19.9489763155
 20
-0.8709578043
 10
-20.7161607263
 20
0.7003348424
 10
-21.4302503835
 20
2.2865276339
 10
-22.0892211225
 20
3.8831243345
 10
-22.6912050191
 20
5.4855992174
 10
-23.2344956845
 20
7.0894098933
 10
-23.7175531023
 20
8.6900101868
 10
-24.1390079938
 20
10.2828630222
 10
-24.4976656994
 20
11.8634532853
 10
-24.7925095647
 20
13.4273006212
 10
-25.0227038228
 20
14.9699721347
 10
-25.1875959631
 20
16.4870949558
 10
-25.2867185809
 20
17.9743686351
 10
-25.3197907023
 20
19.4275773336
  0
ARC
  5
F9
330
1F
100
AcDbEntity
  8
0
  6
Continuous
 62
     7
370
    25
100
AcDbCircle
 10
107.399234026
 20
27.9444174857
 30
0.0
 40
3.0
100
AcDbArc
 50
116.600134961
 51
180.0
  0
ARC
  5
FA
330
1F
100
AcDbEntity
  8
0
  6
Continuous
 62
     7
370
    25
100
AcDbCircle
 10
167.399234026
 20
27.9444174857
 30
0.0
 40
3.000000000000001
100
AcDbArc
 50
0.0
 51
63.399865039
  0
LINE
  5
FB
330
1F
100
AcDbEntity
  8
0
  6
Continuous
 62
     7
370
    25
100
AcDbLine
 10
104.399234026
 20
27.9444174857
 30
0.0
 11
104.399234026
 21
-34.9638457173
 31
0.0
  0
LINE
  5
FC
330
1F
100
AcDbEntity
  8
0
  6
Continuous
 62
     7
370
    25
100
AcDbLine
 10
170.399234026
 20
-34.9638457173
 30
0.0
 11
170.399234026
 21
27.9444174857
 31
0.0
  0
ARC
  5
FD
330
1F
100
AcDbEntity
  8
0
  6
Continuous
 62
     7
370
    25
100
AcDbCircle
 10
105.399234026
 20
-34.9638457173
 30
0.0
 40
1.0
100
AcDbArc
 50
180.0
 51
270.0
  0
ARC
  5
FE
330
1F
100
AcDbEntity
  8
0
  6
Continuous
 62
     7
370
    25
100
AcDbCircle
 10
169.399234026
 20
-34.9638457173
 30
0.0
 40
1.0
100
AcDbArc
 50
270.0
 51
0.0
  0
ARC
  5
FF
330
1F
100
AcDbEntity
  8
0
  6
Continuous
 62
     7
370
    25
100
AcDbCircle
 10
137.399234026
 20
-31.9638457173
 30
0.0
 40
70.0
100
AcDbArc
 50
63.399865039
 51
90.0
  0
ARC
  5
100
330
1F
100
AcDbEntity
  8
0
  6
Continuous
 62
     7
370
    25
100
AcDbCircle
 10
137.399234026
 20
-31.9638457173
 30
0.0
 40
70.0
100
AcDbArc
 50
90.0
 51
116.600134961
  0
SPLINE
  5
101
330
1F
100
AcDbEntity
  8
0
  6
Continuous
 62
     7
370
    25
100
AcDbSpline
210
0.0
220
0.0
230
1.0
 70
    11
 71
     3
 72
    92
 73
    88
 74
     0
 42
0.00000001
 43
0.00000001
 40
0.0
 40
0.0
 40
0.0
 40
0.0
 40
0.0312499999999999
 40
0.0312499999999999
 40
0.0468749999999998
 40
0.0468749999999998
 40
0.0624999999999998
 40
0.0624999999999998
 40
0.0937499999999997
 40
0.0937499999999997
 40
0.1249999999999997
 40
0.1249999999999997
 40
0.1562499999999996
 40
0.1562499999999996
 40
0.1718749999999996
 40
0.1718749999999996
 40
0.1874999999999995
 40
0.1874999999999995
 40
0.2031249999999995
 40
0.2031249999999995
 40
0.2187499999999995
 40
0.2187499999999995
 40
0.2499999999999996
 40
0.2499999999999996
 40
0.2812499999999997
 40
0.2812499999999997
 40
0.3124999999999997
 40
0.3124999999999997
 40
0.3281249999999997
 40
0.3281249999999997
 40
0.3437499999999997
 40
0.3437499999999997
 40
0.3749999999999996
 40
0.3749999999999996
 40
0.4062499999999994
 40
0.4062499999999994
 40
0.4218749999999994
 40
0.4218749999999994
 40
0.4374999999999993
 40
0.4374999999999993
 40
0.4687499999999992
 40
0.4687499999999992
 40
0.4843749999999992
 40
0.4843749999999992
 40
0.4999999999999991
 40
0.4999999999999991
 40
0.5312499999999991
 40
0.5312499999999991
 40
0.5624999999999991
 40
0.5624999999999991
 40
0.5781249999999991
 40
0.5781249999999991
 40
0.5937499999999991
 40
0.5937499999999991
 40
0.6249999999999991
 40
0.6249999999999991
 40
0.6562499999999991
 40
0.6562499999999991
 40
0.6874999999999991
 40
0.6874999999999991
 40
0.7031249999999991
 40
0.7031249999999991
 40
0.7187499999999992
 40
0.7187499999999992
 40
0.7343749999999992
 40
0.7343749999999992
 40
0.7499999999999992
 40
0.7499999999999992
 40
0.7812499999999992
 40
0.7812499999999992
 40
0.8124999999999992
 40
0.8124999999999992
 40
0.8437499999999992
 40
0.8437499999999992
 40
0.8593749999999992
 40
0.8593749999999992
 40
0.8749999999999993
 40
0.8749999999999993
 40
0.9062499999999996
 40
0.9062499999999996
 40
0.9374999999999997
 40
0.9374999999999997
 40
0.9531249999999998
 40
0.9531249999999998
 40
0.9687499999999998
 40
0.9687499999999998
 40
1.0
 40
1.0
 40
1.0
 40
1.0
 10
142.5667109838241
 20
-21.13534479816908
 30
0.0
 10
142.2325197419851
 20
-20.79570856999198
 30
0.0
 10
141.8706128233414
 20
-20.49432886604308
 30
0.0
 10
141.2874589913215
 20
-20.09712401805941
 30
0.0
 10
141.0863081413486
 20
-19.97393750886688
 30
0.0
 10
140.6700773423728
 20
-19.74642048590957
 30
0.0
 10
140.4542591799164
 20
-19.64190851096707
 30
0.0
 10
139.7996347260975
 20
-19.36377004323083
 30
0.0
 10
139.349635157956
 20
-19.22262553872558
 30
0.0
 10
138.4223877527528
 20
-19.02850677880734
 30
0.0
 10
137.9418560814447
 20
-18.97645894021908
 30
0.0
 10
136.9950468661656
 20
-18.96742709917531
 30
0.0
 10
136.5239214393363
 20
-19.00881806183565
 30
0.0
 10
135.820724118598
 20
-19.14137425535141
 30
0.0
 10
135.5874187732365
 20
-19.1974572649065
 30
0.0
 10
135.1323522523786
 20
-19.33074160813305
 30
0.0
 10
134.9092724003997
 20
-19.40816273585
 30
0.0
 10
134.4718427029835
 20
-19.58422092818545
 30
0.0
 10
134.257492950343
 20
-19.6828580448202
 30
0.0
 10
133.837598188365
 20
-19.90163759636179
 30
0.0
 10
133.6309863471205
 20
-20.02253455675891
 30
0.0
 10
133.0351721916236
 20
-20.41182149392678
 30
0.0
 10
132.6686185179649
 20
-20.70644212939947
 30
0.0
 10
131.9950457276828
 20
-21.36476982808905
 30
0.0
 10
131.6860688085133
 20
-21.73249793065391
 30
0.0
 10
131.1533955346679
 20
-22.51034429658335
 30
0.0
 10
130.9264785401705
 20
-22.92250103751209
 30
0.0
 10
130.6462614334198
 20
-23.57662901197873
 30
0.0
 10
130.5627183921345
 20
-23.8017708475079
 30
0.0
 10
130.4197194892951
 20
-24.25479737331384
 30
0.0
 10
130.3597734750375
 20
-24.48356243016951
 30
0.0
 10
130.2139525949707
 20
-25.17651144613201
 30
0.0
 10
130.1617431485543
 20
-25.64816182118037
 30
0.0
 10
130.1520510799847
 20
-26.60646744543121
 30
0.0
 10
130.1945512491073
 20
-27.07810721027794
 30
0.0
 10
130.3264670630466
 20
-27.77477802668736
 30
0.0
 10
130.381885020446
 20
-28.0051906154204
 30
0.0
 10
130.5161572383586
 20
-28.46231997765821
 30
0.0
 10
130.5950907380312
 20
-28.6887161343403
 30
0.0
 10
130.8617468298907
 20
-29.34738011179375
 30
0.0
 10
131.0804113343057
 20
-29.76448956977292
 30
0.0
 10
131.4695444572229
 20
-30.35765425165008
 30
0.0
 10
131.6103740374701
 20
-30.5509030023219
 30
0.0
 10
131.9081962482056
 20
-30.91984231502103
 30
0.0
 10
132.0651589048305
 20
-31.0957742032241
 30
0.0
 10
132.5596721899108
 20
-31.59869350578366
 30
0.0
 10
132.9206075666101
 20
-31.90105595265112
 30
0.0
 10
133.7079401966247
 20
-32.43778627966698
 30
0.0
 10
134.1230234956419
 20
-32.6642019370295
 30
0.0
 10
134.7731773550974
 20
-32.94112656476452
 30
0.0
 10
134.9947188227175
 20
-33.02304310333392
 30
0.0
 10
135.4477158407577
 20
-33.16560857677901
 30
0.0
 10
135.6803402667024
 20
-33.22641332031988
 30
0.0
 10
136.3788346256474
 20
-33.37256932330412
 30
0.0
 10
136.8486141754165
 20
-33.42351659052243
 30
0.0
 10
137.796330551738
 20
-33.4335425407123
 30
0.0
 10
138.2779590670675
 20
-33.39107476706184
 30
0.0
 10
139.2083642115656
 20
-33.21571352378534
 30
0.0
 10
139.6617924258891
 20
-33.08356100970799
 30
0.0
 10
140.3241046042654
 20
-32.81751476631064
 30
0.0
 10
140.5416878071964
 20
-32.71734486128498
 30
0.0
 10
140.9614007772878
 20
-32.49860840018032
 30
0.0
 10
141.1647827144298
 20
-32.37957786801335
 30
0.0
 10
141.5588704328933
 20
-32.12248758723663
 30
0.0
 10
141.7495760289415
 20
-31.9844277710301
 30
0.0
 10
142.1182082065152
 20
-31.68899954652482
 30
0.0
 10
142.297041609638
 20
-31.53069939040941
 30
0.0
 10
142.8058729815374
 20
-31.0333813861792
 30
0.0
 10
143.1082301282797
 20
-30.67330505577054
 30
0.0
 10
143.6411282500729
 20
-29.89678478309386
 30
0.0
 10
143.873200551974
 20
-29.47541541580981
 30
0.0
 10
144.2453259942981
 20
-28.60634972295578
 30
0.0
 10
144.3877712927267
 20
-28.15692016823994
 30
0.0
 10
144.5350885518687
 20
-27.45992393768196
 30
0.0
 10
144.5731426735003
 20
-27.22238253796459
 30
0.0
 10
144.6250135744327
 20
-26.74864691270387
 30
0.0
 10
144.6390777612593
 20
-26.51201326373368
 30
0.0
 10
144.6464840665204
 20
-25.80279908402863
 30
0.0
 10
144.6053522706794
 20
-25.33073211195268
 30
0.0
 10
144.4273316215092
 20
-24.38915663969352
 30
0.0
 10
144.2934784658697
 20
-23.93546867060213
 30
0.0
 10
144.0284589988751
 20
-23.27923992949905
 30
0.0
 10
143.9293301943606
 20
-23.06457785669559
 30
0.0
 10
143.7090206289765
 20
-22.64354856697891
 30
0.0
 10
143.5877343246684
 20
-22.43730587016141
 30
0.0
 10
143.1976834438936
 20
-21.84304201138834
 30
0.0
 10
142.9009022256632
 20
-21.47498102634618
 30
0.0
 10
142.5667109838241
 20
-21.13534479816908
 30
0.0
  0
CIRCLE
  5
102
330
1F
100
AcDbEntity
  8
0
  6
Continuous
 62
     7
370
    25
100
AcDbCircle
 10
137.399234026
 20
-26.2002742368
 30
0.0
 40
7.0
  0
CIRCLE
  5
103
330
1F
100
AcDbEntity
  8
0
  6
Continuous
 62
     7
370
    25
100
AcDbCircle
 10
137.399234026
 20
-26.2002742368
 30
0.0
 40
4.75
  0
LINE
  5
104
330
1F
100
AcDbEntity
  8
0
  6
Continuous
 62
     7
370
    25
100
AcDbLine
 10
105.399234026
 20
-35.9638457173
 30
0.0
 11
169.3992340244
 21
-35.9638457173
 31
0.0
  0
LINE
  5
105
330
1F
100
AcDbEntity
  8
0
  6
Continuous
 62
     1
370
    25
100
AcDbLine
 10
104.399234026
 20
27.9444174857
 30
0.0
 11
170.399234026
 21
27.9444174857
 31
0.0
  0
LINE
  5
106
330
1F
100
AcDbEntity
  8
0
  6
Continuous
 62
     1
370
    25
100
AcDbLine
 10
106.0559504439
 20
30.6268770321
 30
0.0
 11
168.7425176081
 21
30.6268770321
 31
0.0
  0
LINE
  5
107
330
1F
100
AcDbEntity
  8
0
  6
Continuous
 62
     1
370
    25
100
AcDbLine
 10
104.399234026
 20
-34.9638457173
 30
0.0
 11
170.399234026
 21
-34.9638457173
 31
0.0
  0
INSERT
  5
113
330
1F
100
AcDbEntity
  8
FORMAT
 62
     7
100
AcDbBlockReference
  2
SW_CENTERMARKSYMBOL_1
 10
137.399234026
 20
-26.2002742368
 30
0.0
  0
SPLINE
  5
114
330
1F
100
AcDbEntity
  8
0
  6
Continuous
 62
     7
370
    25
100
AcDbSpline
210
0.0
220
0.0
230
1.0
 70
     8
 71
     3
 72
    53
 73
    49
 74
     0
 42
0.00000001
 43
0.00000001
 40
0.0
 40
0.0
 40
0.0
 40
0.0
 40
0.0065599743863309
 40
0.0280673023272696
 40
0.049609177790197
 40
0.0712080073683446
 40
0.0928801347231377
 40
0.1146347825076324
 40
0.1364740726886926
 40
0.1583939837257276
 40
0.1803859302667991
 40
0.2024385758496656
 40
0.224539526194632
 40
0.2466766690233474
 40
0.2688390689272352
 40
0.291017442025426
 40
0.3132043012599575
 40
0.335393440336047
 40
0.3575799499441366
 40
0.3797612458810912
 40
0.4019356947478434
 40
0.4241023985436966
 40
0.4462610144785374
 40
0.4684116102287358
 40
0.4905545511200819
 40
0.5126904143058948
 40
0.5348199248462111
 40
0.5569439090452837
 40
0.5790632610914175
 40
0.601178919760386
 40
0.623291852592264
 40
0.645403045491934
 40
0.6675134961272665
 40
0.6896242098114712
 40
0.7117358907925646
 40
0.7338495223730733
 40
0.7559661187211707
 40
0.7780866908960692
 40
0.8002122407085211
 40
0.8223437509797855
 40
0.8444821705869603
 40
0.8666283922651901
 40
0.888783220589833
 40
0.9109473268912847
 40
0.9331211870891419
 40
0.9553049976491441
 40
0.9774985642385355
 40
0.9999999999999999
 40
0.9999999999999999
 40
0.9999999999999999
 40
0.9999999999999999
 10
257.0553155759244
 20
51.39191252265282
 30
0.0
 10
256.9643926438871
 20
51.43476370363961
 30
0.0
 10
256.5753726155025
 20
51.61810543350109
 30
0.0
 10
255.8497670774771
 20
51.86692905151056
 30
0.0
 10
254.8809101498918
 20
52.13590059359154
 30
0.0
 10
253.8760932193632
 20
52.32379972362555
 30
0.0
 10
252.8410048719198
 20
52.43692909734288
 30
0.0
 10
251.7769997775138
 20
52.4729145963849
 30
0.0
 10
250.6868686754462
 20
52.43187959853967
 30
0.0
 10
249.5733000994849
 20
52.31352179237856
 30
0.0
 10
248.4392669607324
 20
52.11797176768607
 30
0.0
 10
247.2878639602769
 20
51.84560608954329
 30
0.0
 10
246.1222793088727
 20
51.49711171152789
 30
0.0
 10
244.9457324906802
 20
51.07345672114768
 30
0.0
 10
243.761434179382
 20
50.57586930463106
 30
0.0
 10
242.5725576645737
 20
50.00580712292239
 30
0.0
 10
241.3822318227855
 20
49.36493374259428
 30
0.0
 10
240.1935395886569
 20
48.65509980709885
 30
0.0
 10
239.0094992156185
 20
47.87831607758825
 30
0.0
 10
237.8330606493494
 20
47.03673238049687
 30
0.0
 10
236.6671068249428
 20
46.1326216696468
 30
0.0
 10
235.5144763800406
 20
45.16838632046878
 30
0.0
 10
234.3779645500438
 20
44.14655368431774
 30
0.0
 10
233.2603224083063
 20
43.06977219418757
 30
0.0
 10
232.1642546324425
 20
41.94080749464209
 30
0.0
 10
231.092416061659
 20
40.76253825974908
 30
0.0
 10
230.0474073289822
 20
39.53795150695948
 30
0.0
 10
229.0317698338257
 20
38.27013731494564
 30
0.0
 10
228.0479802868691
 20
36.9622829198881
 30
0.0
 10
227.0984450219797
 20
35.61766620662017
 30
0.0
 10
226.185494235083
 20
34.23964863648746
 30
0.0
 10
225.311376279724
 20
32.83166766800302
 30
0.0
 10
224.4782521252368
 20
31.39722873631321
 30
0.0
 10
223.6881937059194
 20
29.93990357865634
 30
0.0
 10
222.9431747021122
 20
28.46331588534471
 30
0.0
 10
222.2450653785692
 20
26.97113147460572
 30
0.0
 10
221.5956256505946
 20
25.46704197767176
 30
0.0
 10
220.9965048583613
 20
23.95476173456392
 30
0.0
 10
220.4492386876188
 20
22.43801922641009
 30
0.0
 10
219.9552473955988
 20
20.92054857860368
 30
0.0
 10
219.5158304098447
 20
19.40607911519154
 30
0.0
 10
219.1321770188185
 20
17.89833366200781
 30
0.0
 10
218.805319455617
 20
16.40099641604374
 30
0.0
 10
218.5363033532203
 20
14.91779758958903
 30
0.0
 10
218.3255482527789
 20
13.45216613746718
 30
0.0
 10
218.1752338526296
 20
12.00850079594853
 30
0.0
 10
218.0799606463712
 20
10.58102553686618
 30
0.0
 10
218.0680773918068
 20
9.652530755885913
 30
0.0
 10
218.062094837267
 20
9.185085525542783
 30
0.0
  0
SPLINE
  5
115
330
1F
100
AcDbEntity
  8
0
  6
Continuous
 62
     7
370
    25
100
AcDbSpline
210
0.0
220
0.0
230
1.0
 70
     8
 71
     3
 72
    22
 73
    18
 74
     0
 42
0.00000001
 43
0.00000001
 40
0.0
 40
0.0
 40
0.0
 40
0.0
 40
0.0368017467795514
 40
0.1065586961537786
 40
0.1763371279694598
 40
0.2461071474014814
 40
0.3158482482856452
 40
0.3855340043405508
 40
0.4551319256940251
 40
0.524604156651004
 40
0.5939093911087331
 40
0.663006292818231
 40
0.7318584246808184
 40
0.8004402248087759
 40
0.8687430357838272
 40
0.9367798236759669
 40
1.0
 40
1.0
 40
1.0
 40
1.0
 10
218.062094837267
 20
9.185085525542783
 30
0.0
 10
218.0637917530751
 20
8.944266551186281
 30
0.0
 10
218.0687051376781
 20
8.246980194909922
 30
0.0
 10
218.1232958391516
 20
7.118875639485042
 30
0.0
 10
218.2458345257089
 20
5.815670009973425
 30
0.0
 10
218.4299820832639
 20
4.553520450696698
 30
0.0
 10
218.674456877027
 20
3.335374170282178
 30
0.0
 10
218.9791141485552
 20
2.164736650380698
 30
0.0
 10
219.3432316251259
 20
1.044887038287597
 30
0.0
 10
219.7659279306803
 20
-0.0209189858213915
 30
0.0
 10
220.2460296733051
 20
-1.029532857085663
 30
0.0
 10
220.7820501090989
 20
-1.978014535558382
 30
0.0
 10
221.372344329008
 20
-2.863460053348534
 30
0.0
 10
222.0145694364897
 20
-3.683952631640826
 30
0.0
 10
222.7078841634241
 20
-4.435307484823604
 30
0.0
 10
223.428525666617
 20
-5.107885233694966
 30
0.0
 10
223.9413389407737
 20
-5.493699755128721
 30
0.0
 10
224.188336468159
 20
-5.679528082174618
 30
0.0
  0
LINE
  5
116
330
1F
100
AcDbEntity
  8
0
  6
Continuous
 62
     7
370
    25
100
AcDbLine
 10
302.6710304272
 20
25.1478195835
 30
0.0
 11
258.1881709237
 21
50.8272277733
 31
0.0
  0
LINE
  5
117
330
1F
100
AcDbEntity
  8
0
  6
Continuous
 62
     7
370
    25
100
AcDbLine
 10
225.1908527467
 20
-6.3319971439
 30
0.0
 11
240.8082733242
 21
-15.3477421377
 31
0.0
  0
LINE
  5
118
330
1F
100
AcDbEntity
  8
0
  6
Continuous
 62
     7
370
    25
100
AcDbLine
 10
252.420109617
 20
-22.0511125443
 30
0.0
 11
269.6737122503
 21
-32.0114053337
 31
0.0
  0
LINE
  5
119
330
1F
100
AcDbEntity
  8
0
  6
Continuous
 62
     7
370
    25
100
AcDbLine
 10
240.6510444807
 20
-7.9932010962
 30
0.0
 11
240.8868256922
 21
-19.0221100282
 31
0.0
  0
LINE
  5
11A
330
1F
100
AcDbEntity
  8
0
  6
Continuous
 62
     7
370
    25
100
AcDbLine
 10
254.8857596207
 20
-19.0221100282
 30
0.0
 11
255.1211959939
 21
-8.0093312612
 31
0.0
  0
SPLINE
  5
11B
330
1F
100
AcDbEntity
  8
0
  6
Continuous
 62
     7
370
    25
100
AcDbSpline
210
0.0
220
0.0
230
1.0
 70
     8
 71
     3
 72
    70
 73
    66
 74
     0
 42
0.00000001
 43
0.00000001
 40
0.0
 40
0.0
 40
0.0
 40
0.0
 40
0.0110444356362371
 40
0.0261854591279017
 40
0.0413399341369114
 40
0.0565453971666735
 40
0.0718357457491368
 40
0.0872391903555262
 40
0.1027765214843237
 40
0.1184598782242453
 40
0.1342922430776329
 40
0.150267840344233
 40
0.1663734659348036
 40
0.1825905621422229
 40
0.1988976609675635
 40
0.2152727466856105
 40
0.2316951652649448
 40
0.2481468868267666
 40
0.2646131177298118
 40
0.2810804989528765
 40
0.2975403642088784
 40
0.3139877314462421
 40
0.330419601400909
 40
0.3468345083246929
 40
0.3632321374558602
 40
0.3796130165697805
 40
0.3959782766367679
 40
0.4123294716190766
 40
0.4286684462337259
 40
0.4449972412115553
 40
0.461318027056588
 40
0.4776330589327143
 40
0.4939446467761771
 40
0.5102551359306567
 40
0.5265667771859307
 40
0.5428812785971953
 40
0.559201029638916
 40
0.5755284178458827
 40
0.5918658146141345
 40
0.6082155534303497
 40
0.624579896243888
 40
0.6409609827984499
 40
0.6573607563569923
 40
0.67378085756014
 40
0.6902224762818506
 40
0.7066861496105004
 40
0.7231714931700937
 40
0.7396768541725205
 40
0.7561988799850934
 40
0.7727320087824591
 40
0.789265511955223
 40
0.805785520449769
 40
0.8222755052553395
 40
0.8387153146735061
 40
0.8550818984940405
 40
0.8713508105281427
 40
0.887498482327458
 40
0.9035050126277574
 40
0.9193569788525625
 40
0.9350496827402628
 40
0.9505883661300436
 40
0.9659882217740937
 40
0.981273329307114
 40
0.9964748334339103
 40
1.0
 40
1.0
 40
1.0
 40
1.0
 10
269.6754683106818
 20
-32.00288667081423
 30
0.0
 10
269.8951901306892
 20
-32.12865098381756
 30
0.0
 10
270.4161327054673
 20
-32.42682794698373
 30
0.0
 10
271.2847186946951
 20
-32.81193045922277
 30
0.0
 10
272.2696627320765
 20
-33.16969911051305
 30
0.0
 10
273.2892936209566
 20
-33.44939202775366
 30
0.0
 10
274.3400219027573
 20
-33.6536611862287
 30
0.0
 10
275.4205725167485
 20
-33.78097618010379
 30
0.0
 10
276.528909107045
 20
-33.83082474643083
 30
0.0
 10
277.662909164494
 20
-33.80240433071597
 30
0.0
 10
278.8200579683252
 20
-33.69511330722088
 30
0.0
 10
279.9974660018693
 20
-33.508574202333
 30
0.0
 10
281.1918722395638
 20
-33.24277361635495
 30
0.0
 10
282.3997235631465
 20
-32.89813127252659
 30
0.0
 10
283.6172861805752
 20
-32.47553013176046
 30
0.0
 10
284.8407695375213
 20
-31.9762957385823
 30
0.0
 10
286.0664356245012
 20
-31.40214021581467
 30
0.0
 10
287.2906777930559
 20
-30.75508800551255
 30
0.0
 10
288.5100173743226
 20
-30.03742817949967
 30
0.0
 10
289.7211573782656
 20
-29.25163866576876
 30
0.0
 10
290.9210000877193
 20
-28.40032078162706
 30
0.0
 10
292.1066663729701
 20
-27.4861250032325
 30
0.0
 10
293.2754250098395
 20
-26.51175313236329
 30
0.0
 10
294.4246397810842
 20
-25.47997168936058
 30
0.0
 10
295.5517512265505
 20
-24.39361088667842
 30
0.0
 10
296.6542637020491
 20
-23.25556590041674
 30
0.0
 10
297.729737309646
 20
-22.06879868113014
 30
0.0
 10
298.7757838766441
 20
-20.83633923227046
 30
0.0
 10
299.7900660725622
 20
-19.56128577593373
 30
0.0
 10
300.7702988125696
 20
-18.24680355434299
 30
0.0
 10
301.7142522150082
 20
-16.89612222198414
 30
0.0
 10
302.6197555122139
 20
-15.51253190570212
 30
0.0
 10
303.4847014348757
 20
-14.09937807819069
 30
0.0
 10
304.3070487192165
 20
-12.6600588800004
 30
0.0
 10
305.0848181303063
 20
-11.19803510738674
 30
0.0
 10
305.8161099859482
 20
-9.716803577719798
 30
0.0
 10
306.4991092859972
 20
-8.219884683857446
 30
0.0
 10
307.1320940867928
 20
-6.710796238364764
 30
0.0
 10
307.7134263065579
 20
-5.193065698756931
 30
0.0
 10
308.2415522705137
 20
-3.670222763730522
 30
0.0
 10
308.7150022617948
 20
-2.145792852903108
 30
0.0
 10
309.1323891067599
 20
-0.6232919708070491
 30
0.0
 10
309.4924059337878
 20
0.8937764503192045
 30
0.0
 10
309.7938234022421
 20
2.401922019271987
 30
0.0
 10
310.035486932088
 20
3.897664349848274
 30
0.0
 10
310.2163147979805
 20
5.377525639966882
 30
0.0
 10
310.3352984052932
 20
6.838018029550138
 30
0.0
 10
310.3915066404729
 20
8.275625165080708
 30
0.0
 10
310.3840968402232
 20
9.686778021282633
 30
0.0
 10
310.3123389844209
 20
11.06775942292108
 30
0.0
 10
310.1756663964437
 20
12.41468747308358
 30
0.0
 10
309.9737379162749
 20
13.72352881678464
 30
0.0
 10
309.7064951560941
 20
14.99015783022459
 30
0.0
 10
309.3742318102021
 20
16.2103732378794
 30
0.0
 10
308.9776710708676
 20
17.37993616972168
 30
0.0
 10
308.5180226221635
 20
18.49468001416592
 30
0.0
 10
307.9969992281555
 20
19.55064535708529
 30
0.0
 10
307.4167961292756
 20
20.54424723483569
 30
0.0
 10
306.7799688338763
 20
21.4723332071576
 30
0.0
 10
306.0894498709627
 20
22.3325106018236
 30
0.0
 10
305.3478860664802
 20
23.12223026153232
 30
0.0
 10
304.559415961656
 20
23.8421373448228
 30
0.0
 10
303.7225092773662
 20
24.48341930543114
 30
0.0
 10
303.0767346250586
 20
24.92356183082558
 30
0.0
 10
302.6983748877989
 20
25.12628977746929
 30
0.0
 10
302.6271512774938
 20
25.16445191484227
 30
0.0
  0
LINE
  5
11C
330
1F
100
AcDbEntity
  8
0
  6
Continuous
 62
     7
370
    25
100
AcDbLine
 10
254.9770046124
 20
52.0946113779
 30
0.0
 11
254.8857596207
 21
56.3626898125
 31
0.0
  0
LINE
  5
11D
330
1F
100
AcDbEntity
  8
0
  6
Continuous
 62
     7
370
    25
100
AcDbLine
 10
240.8868256922
 20
56.3626898125
 30
0.0
 11
240.7286314921
 21
48.962993223
 31
0.0
  0
LWPOLYLINE
  5
11E
330
1F
100
AcDbEntity
  8
0
  6
Continuous
 62
     7
370
    25
100
AcDbPolyline
 90
      117
 70
   128
 43
0.0
 10
218.3549880561
 20
9.5932895815
 10
218.3881731124
 20
11.0270590146
 10
218.487630944
 20
12.4949376054
 10
218.6530698238
 20
13.9926198132
 10
218.8840044912
 20
15.5157126779
 10
219.1797575749
 20
17.0597487058
 10
219.5394615802
 20
18.6201989732
 10
219.9620614333
 20
20.1924864104
 10
220.446317576
 20
21.7719992277
 10
220.9908096016
 20
23.3541044418
 10
221.5939404212
 20
24.9341614654
 10
222.2539409481
 20
26.5075357191
 10
222.9688752871
 20
28.0696122251
 10
223.7366464126
 20
29.6158091439
 10
224.5550023197
 20
31.1415912135
 10
225.4215426293
 20
32.6424830522
 10
226.3337256295
 20
34.1140822856
 10
227.2888757304
 20
35.5520724597
 10
228.2841913122
 20
36.9522357014
 10
229.3167529428
 20
38.3104650909
 10
230.383531941
 20
39.6227767071
 10
231.4813992601
 20
40.8853213142
 10
232.6071346663
 20
42.0943956511
 10
233.7574361836
 20
43.2464532946
 10
234.9289297794
 20
44.338115061
 10
236.1181792612
 20
45.3661789184
 10
237.3216963553
 20
46.3276293783
 10
238.5359509388
 20
47.2196463408
 10
239.7573813937
 20
48.0396133666
 10
240.982405054
 20
48.785125351
 10
242.2074287144
 20
49.4539955789
 10
243.4288591693
 20
50.0442621387
 10
244.6431137528
 20
50.5541936769
 10
245.8466308469
 20
50.9822944765
 10
247.0358803287
 20
51.327308844
 10
248.2073739245
 20
51.5882247928
 10
249.3576754418
 20
51.7642770116
 10
250.483410848
 20
51.8549491087
 10
251.5812781671
 20
51.8599751274
 10
252.6480571653
 20
51.7793403254
 10
253.6806187959
 20
51.6132812186
 10
254.6759343777
 20
51.3622848869
 10
255.6310844786
 20
51.0270875457
 10
256.5432674788
 20
50.6086723867
 10
257.4098077884
 20
50.1082666936
 10
258.2281636955
 20
49.5273382424
 10
258.995934821
 20
48.8675909966
 10
259.71086916
 20
48.1309601083
 10
260.3708696869
 20
47.3196062429
 10
260.9740005065
 20
46.4359092411
 10
261.5184925321
 20
45.4824611385
 10
262.0027486748
 20
44.4620585625
 10
262.4253485279
 20
43.3776945299
 10
262.7850525332
 20
42.2325496671
 10
263.0808056169
 20
41.0299828813
 10
263.3117402843
 20
39.7735215081
 10
263.4771791641
 20
38.4668509652
 10
263.5766369957
 20
37.1138039424
 10
263.609822052
 20
35.7183491598
 10
263.5766369957
 20
34.2845797267
 10
263.4771791641
 20
32.8167011358
 10
263.3117402843
 20
31.319018928
 10
263.0808056169
 20
29.7959260633
 10
262.7850525332
 20
28.2518900354
 10
262.4253485279
 20
26.6914397681
 10
262.0027486748
 20
25.1191523308
 10
261.5184925321
 20
23.5396395135
 10
260.9740005065
 20
21.9575342995
 10
260.3708696869
 20
20.3774772758
 10
259.71086916
 20
18.8041030221
 10
258.995934821
 20
17.2420265161
 10
258.2281636955
 20
15.6958295973
 10
257.4098077884
 20
14.1700475278
 10
256.5432674788
 20
12.6691556891
 10
255.6310844786
 20
11.1975564556
 10
254.6759343777
 20
9.7595662816
 10
253.6806187959
 20
8.3594030398
 10
252.6480571653
 20
7.0011736504
 10
251.5812781671
 20
5.6888620341
 10
250.483410848
 20
4.4263174271
 10
249.3576754418
 20
3.2172430901
 10
248.2073739245
 20
2.0651854467
 10
247.0358803287
 20
0.9735236802
 10
245.8466308469
 20
-0.0545401772
 10
244.6431137528
 20
-1.0159906371
 10
243.4288591693
 20
-1.9080075996
 10
242.2074287144
 20
-2.7279746253
 10
240.982405054
 20
-3.4734866097
 10
239.7573813937
 20
-4.1423568376
 10
238.5359509388
 20
-4.7326233975
 10
237.3216963553
 20
-5.2425549357
 10
236.1181792612
 20
-5.6706557353
 10
234.9289297794
 20
-6.0156701028
 10
233.7574361836
 20
-6.2765860516
 10
232.6071346663
 20
-6.4526382703
 10
231.4813992601
 20
-6.5433103675
 10
230.383531941
 20
-6.5483363862
 10
229.3167529428
 20
-6.4677015842
 10
228.2841913122
 20
-6.3016424774
 10
227.2888757304
 20
-6.0506461456
 10
226.3337256295
 20
-5.7154488045
 10
225.4215426293
 20
-5.2970336455
 10
224.5550023197
 20
-4.7966279523
 10
223.7366464126
 20
-4.2156995012
 10
222.9688752871
 20
-3.5559522553
 10
222.2539409481
 20
-2.819321367
 10
221.5939404212
 20
-2.0079675017
 10
220.9908096016
 20
-1.1242704999
 10
220.446317576
 20
-0.1708223972
 10
219.9620614333
 20
0.8495801787
 10
219.5394615802
 20
1.9339442113
 10
219.1797575749
 20
3.0790890741
 10
218.8840044912
 20
4.2816558599
 10
218.6530698238
 20
5.5381172331
 10
218.487630944
 20
6.8447877761
 10
218.3881731124
 20
8.1978347988
 10
218.3549880561
 20
9.5932895815
  0
ARC
  5
11F
330
1F
100
AcDbEntity
  8
0
  6
Continuous
 62
     7
370
    25
100
AcDbCircle
 10
252.6743099383
 20
41.275831796
 30
0.0
 40
11.02865121159524
100
AcDbArc
 50
53.5538495217
 51
66.2078453921
  0
ARC
  5
120
330
1F
100
AcDbEntity
  8
0
  6
Continuous
 62
     7
370
    25
100
AcDbCircle
 10
230.7035937887
 20
3.2172872045
 30
0.0
 40
11.02626770402673
100
AcDbArc
 50
234.1377756404
 51
246.2228894424
  0
SPLINE
  5
121
330
1F
100
AcDbEntity
  8
0
  6
Continuous
 62
     7
370
    25
100
AcDbSpline
210
0.0
220
0.0
230
1.0
 70
     8
 71
     3
 72
    27
 73
    23
 74
     0
 42
0.00000001
 43
0.00000001
 40
0.0
 40
0.0
 40
0.0
 40
0.0
 40
0.0070815213518454
 40
0.0602428583010699
 40
0.11340000242866
 40
0.1666059115316327
 40
0.2198059475822242
 40
0.2720811331869658
 40
0.3243579073930326
 40
0.3760914691838915
 40
0.4278308757053152
 40
0.4804949013324671
 40
0.5331606154089518
 40
0.5868449425456613
 40
0.6405242994521404
 40
0.6938475339104387
 40
0.7471671869069726
 40
0.7994419448762489
 40
0.8517198590643719
 40
0.9039303813714253
 40
0.9561455284550938
 40
1.0
 40
1.0
 40
1.0
 40
1.0
 10
255.1121977417785
 20
-8.008907002658598
 30
0.0
 10
255.1157819716724
 20
-7.973040298720376
 30
0.0
 10
255.1462731956472
 20
-7.667920444423302
 30
0.0
 10
255.032863680927
 20
-7.090377724304483
 30
0.0
 10
254.7333743770759
 20
-6.311635996027787
 30
0.0
 10
254.2196775961416
 20
-5.596047210137917
 30
0.0
 10
253.5363646593458
 20
-4.971441854755655
 30
0.0
 10
252.6939450657562
 20
-4.463935655826448
 30
0.0
 10
251.7309371408062
 20
-4.081345454959695
 30
0.0
 10
250.6666296227544
 20
-3.833469559596937
 30
0.0
 10
249.5288114514643
 20
-3.712258606932188
 30
0.0
 10
248.340641156931
 20
-3.720187857173651
 30
0.0
 10
247.1263757797842
 20
-3.846095664575285
 30
0.0
 10
245.9251524515085
 20
-4.084339762141891
 30
0.0
 10
244.7720873695746
 20
-4.418097911489286
 30
0.0
 10
243.7105289969934
 20
-4.83193446148119
 30
0.0
 10
242.7727298956335
 20
-5.304098859592623
 30
0.0
 10
241.9875546418345
 20
-5.81993818375566
 30
0.0
 10
241.3655199241385
 20
-6.364286863784135
 30
0.0
 10
240.9320004430762
 20
-6.929189963790091
 30
0.0
 10
240.6778563145687
 20
-7.474900734823237
 30
0.0
 10
240.6699671638225
 20
-7.830859949006112
 30
0.0
 10
240.6663658740303
 20
-7.993350478815366
 30
0.0
  0
LWPOLYLINE
  5
122
330
1F
100
AcDbEntity
  8
0
  6
Continuous
 62
     7
370
    25
100
AcDbPolyline
 90
      104
 70
   128
 43
0.0
 10
223.3047355244
 20
12.4507179728
 10
223.3376165702
 20
13.7141890891
 10
223.4361373882
 20
15.0109236573
 10
223.5999314743
 20
16.3360977397
 10
223.8283895038
 20
17.6847816017
 10
224.1206615978
 20
19.0519580506
 10
224.475660485
 20
20.4325411003
 10
224.8920655461
 20
21.8213948913
 10
225.368327727
 20
23.2133527961
 10
225.9026753011
 20
24.6032366399
 10
226.4931204603
 20
25.9858759636
 10
227.1374667099
 20
27.3561272581
 10
227.8333170395
 20
28.7088930985
 10
228.5780828401
 20
30.039141107
 10
229.368993534
 20
31.3419226738
 10
230.2031068816
 20
32.6123913658
 10
231.0773199264
 20
33.845820956
 10
231.9883805384
 20
35.0376230053
 10
232.9328995123
 20
36.1833639319
 10
233.9073631756
 20
37.2787815042
 10
234.9081464593
 20
38.3198006969
 10
235.931526384
 20
39.3025488503
 10
236.973695909
 20
40.2233700767
 10
238.0307780954
 20
41.0788388606
 10
239.0988405279
 20
41.865772802
 10
240.1739099442
 20
42.5812444549
 10
241.2519870153
 20
43.2225922177
 10
242.3290612239
 20
43.7874302348
 10
243.4011257831
 20
44.2736572715
 10
244.4641925423
 20
44.6794645314
 10
245.5143068233
 20
45.0033423847
 10
246.5475621322
 20
45.2440859846
 10
247.5601146911
 20
45.4007997492
 10
248.5481977382
 20
45.4729006928
 10
249.5081355396
 20
45.4601205953
 10
250.4363570636
 20
45.3625069994
 10
251.3294092652
 20
45.1804230342
 10
252.1839699316
 20
44.9145460639
 10
252.9968600408
 20
44.5658651683
 10
253.7650555884
 20
44.1356774634
 10
254.4856988365
 20
43.6255832755
 10
255.1561089448
 20
43.0374801886
 10
255.7737919437
 20
42.3735559848
 10
256.3364500118
 20
41.6362805057
 10
256.8419900243
 20
40.8283964646
 10
257.288531339
 20
39.9529092431
 10
257.6744127929
 20
39.0130757112
 10
257.9981988817
 20
38.0123921113
 10
258.2586850999
 20
36.9545810523
 10
258.4549024215
 20
35.8435776606
 10
258.5861209054
 20
34.6835149419
 10
258.6518524101
 20
33.4787084057
 10
258.6518524101
 20
32.2336400115
 10
258.5861209054
 20
30.9529414954
 10
258.4549024215
 20
29.64137714
 10
258.2586850999
 20
28.3038260509
 10
257.9981988817
 20
26.9452640061
 10
257.6744127929
 20
25.5707449454
 10
257.288531339
 20
24.1853821701
 10
256.8419900243
 20
22.7943293208
 10
256.3364500118
 20
21.4027612053
 10
255.7737919437
 20
20.0158545486
 10
255.1561089448
 20
18.6387687343
 10
254.4856988365
 20
17.2766266123
 10
253.7650555884
 20
15.9344954406
 10
252.9968600408
 20
14.6173680355
 10
252.1839699316
 20
13.3301441972
 10
251.3294092652
 20
12.0776124831
 10
250.4363570636
 20
10.8644323934
 10
249.5081355396
 20
9.6951170377
 10
248.5481977382
 20
8.574016346
 10
247.5601146911
 20
7.5053008864
 10
246.5475621322
 20
6.4929463507
 10
245.5143068233
 20
5.5407187641
 10
244.4641925423
 20
4.652160476
 10
243.4011257831
 20
3.8305769814
 10
242.3290612239
 20
3.079024625
 10
241.2519870153
 20
2.4002992308
 10
240.1739099442
 20
1.7969257019
 10
239.0988405279
 20
1.2711486275
 10
238.0307780954
 20
0.8249239328
 10
236.973695909
 20
0.459911603
 10
235.931526384
 20
0.1774695079
 10
234.9081464593
 20
-0.0213516493
 10
233.9073631756
 20
-0.1358122408
 10
232.9328995123
 20
-0.1654864659
 10
231.9883805384
 20
-0.1102639343
 10
231.0773199264
 20
0.0296499225
 10
230.2031068816
 20
0.2537346157
 10
229.368993534
 20
0.5611565356
 10
228.5780828401
 20
0.9507720524
 10
227.8333170395
 20
1.4211317708
 10
227.1374667099
 20
1.9704859218
 10
226.4931204603
 20
2.5967908719
 10
225.9026753011
 20
3.2977167254
 10
225.368327727
 20
4.0706559922
 10
224.8920655461
 20
4.9127332875
 10
224.475660485
 20
5.8208160283
 10
224.1206615978
 20
6.7915260874
 10
223.8283895038
 20
7.8212523594
 10
223.5999314743
 20
8.906164195
 10
223.4361373882
 20
10.042225651
 10
223.3376165702
 20
11.225210504
 10
223.3047355244
 20
12.4507179728
  0
LWPOLYLINE
  5
123
330
1F
100
AcDbEntity
  8
0
  6
Continuous
 62
     7
370
    25
100
AcDbPolyline
 90
       55
 70
   128
 43
0.0
 10
242.9365451881
 20
-21.8296699272
 10
242.395383002
 20
-21.4786218298
 10
241.9284759494
 20
-21.0936792385
 10
241.5421381472
 20
-20.6800478416
 10
241.2415941514
 20
-20.2433212942
 10
241.0309083041
 20
-19.7894055735
 10
240.9129297698
 20
-19.3244391111
 10
240.8892540059
 20
-18.8547097806
 10
240.9602011864
 20
-18.3865698655
 10
241.1248118724
 20
-17.9263501551
 10
241.3808599869
 20
-17.4802743313
 10
241.7248829182
 20
-17.0543748046
 10
242.1522283464
 20
-16.6544111353
 10
242.6571171578
 20
-16.285792146
 10
243.2327215972
 20
-15.9535027761
 10
243.871257602
 20
-15.6620366693
 10
244.5640900682
 20
-15.4153354048
 10
245.3018496253
 20
-15.2167351938
 10
246.0745593407
 20
-15.0689217637
 10
246.8717696413
 20
-14.9738940374
 10
247.6826996252
 20
-14.9329371018
 10
248.4963828557
 20
-14.9466048294
 10
249.3018156628
 20
-15.0147123876
 10
250.0881059495
 20
-15.1363387383
 10
250.8446204886
 20
-15.309839094
 10
251.5611287188
 20
-15.53286716
 10
252.2279410953
 20
-15.8024068641
 10
252.8360401248
 20
-16.1148131444
 10
253.3772023109
 20
-16.4658612418
 10
253.8441093635
 20
-16.8508038331
 10
254.2304471657
 20
-17.26443523
 10
254.5309911615
 20
-17.7011617774
 10
254.7416770088
 20
-18.1550774981
 10
254.8596555431
 20
-18.6200439605
 10
254.883331307
 20
-19.089773291
 10
254.8123841265
 20
-19.5579132061
 10
254.6477734405
 20
-20.0181329165
 10
254.391725326
 20
-20.4642087403
 10
254.0477023947
 20
-20.890108267
 10
253.6203569665
 20
-21.2900719363
 10
253.1154681551
 20
-21.6586909257
 10
252.5398637157
 20
-21.9909802955
 10
251.9013277109
 20
-22.2824464023
 10
251.2084952447
 20
-22.5291476668
 10
250.4707356876
 20
-22.7277478778
 10
249.6980259722
 20
-22.8755613079
 10
248.9008156716
 20
-22.9705890343
 10
248.0898856877
 20
-23.0115459698
 10
247.2762024572
 20
-22.9978782422
 10
246.4707696501
 20
-22.929770684
 10
245.6844793634
 20
-22.8081443333
 10
244.9279648243
 20
-22.6346439776
 10
244.2114565941
 20
-22.4116159116
 10
243.5446442176
 20
-22.1420762075
 10
242.9365451881
 20
-21.8296699272
  0
LWPOLYLINE
  5
124
330
1F
100
AcDbEntity
  8
0
  6
Continuous
 62
     7
370
    25
100
AcDbPolyline
 90
       46
 70
   128
 43
0.0
 10
244.5275354458
 20
-20.9112108014
 10
244.0927739837
 20
-20.6224885204
 10
243.7318490475
 20
-20.301646059
 10
243.4517856306
 20
-19.9549282508
 10
243.2580348487
 20
-19.5890835634
 10
243.1543678405
 20
-19.2112327476
 10
243.1428023664
 20
-18.8287302397
 10
243.2235635351
 20
-18.449021016
 10
243.3950794224
 20
-18.0794956845
 10
243.6540116666
 20
-17.7273466355
 10
243.9953204461
 20
-17.3994280497
 10
244.4123625738
 20
-17.1021224894
 10
244.897020799
 20
-16.8412166691
 10
245.4398618006
 20
-16.6217888238
 10
246.0303197961
 20
-16.4481098669
 10
246.6569021922
 20
-16.3235602619
 10
247.3074132753
 20
-16.250564225
 10
247.969191587
 20
-16.230542541
 10
248.6293563654
 20
-16.2638849094
 10
249.2750582539
 20
-16.3499423588
 10
249.8937293997
 20
-16.4870398789
 10
250.4733280728
 20
-16.6725090223
 10
251.0025730442
 20
-16.9027398432
 10
251.4711631625
 20
-17.1732511606
 10
251.8699778542
 20
-17.4787777792
 10
252.1912546449
 20
-17.8133729711
 10
252.4287402473
 20
-18.1705242214
 10
252.5778122743
 20
-18.5432799873
 10
252.6355692084
 20
-18.9243850018
 10
252.6008868767
 20
-19.3064214893
 10
252.4744403313
 20
-19.6819535442
 10
252.2586907104
 20
-20.043671862
 10
251.9578373348
 20
-20.3845360073
 10
251.5777359734
 20
-20.6979114472
 10
251.1257848667
 20
-20.9776986852
 10
250.6107807291
 20
-21.2184519809
 10
250.0427475302
 20
-21.4154853454
 10
249.4327413901
 20
-21.5649637482
 10
248.7926353845
 20
-21.6639777624
 10
248.1348884486
 20
-21.7106001927
 10
247.4723028784
 20
-21.7039235866
 10
246.8177751483
 20
-21.6440778966
 10
246.1840448961
 20
-21.532227951
 10
245.5834469603
 20
-21.3705507818
 10
245.0276712965
 20
-21.1621932511
 10
244.5275354458
 20
-20.9112108014
  0
LWPOLYLINE
  5
125
330
1F
100
AcDbEntity
  8
0
  6
Continuous
 62
     7
370
    25
100
AcDbPolyline
 90
       29
 70
   128
 43
0.0
 10
240.8868256922
 20
56.3626898125
 10
240.8892540059
 20
56.4303530752
 10
240.9602011864
 20
56.8984929903
 10
241.1248118724
 20
57.3587127008
 10
241.3808599869
 20
57.8047885246
 10
241.7248829182
 20
58.2306880513
 10
242.1522283464
 20
58.6306517206
 10
242.6571171578
 20
58.9992707099
 10
243.2327215972
 20
59.3315600798
 10
243.871257602
 20
59.6230261865
 10
244.5640900682
 20
59.8697274511
 10
245.3018496253
 20
60.068327662
 10
246.0745593407
 20
60.2161410922
 10
246.8717696413
 20
60.3111688185
 10
247.6826996252
 20
60.352125754
 10
248.4963828557
 20
60.3384580264
 10
249.3018156628
 20
60.2703504683
 10
250.0881059495
 20
60.1487241175
 10
250.8446204886
 20
59.9752237618
 10
251.5611287188
 20
59.7521956959
 10
252.2279410953
 20
59.4826559917
 10
252.8360401248
 20
59.1702497114
 10
253.3772023109
 20
58.819201614
 10
253.8441093635
 20
58.4342590228
 10
254.2304471657
 20
58.0206276259
 10
254.5309911615
 20
57.5839010785
 10
254.7416770088
 20
57.1299853578
 10
254.8596555431
 20
56.6650188953
 10
254.8857596207
 20
56.3626898125
  0
LWPOLYLINE
  5
126
330
1F
100
AcDbEntity
  8
0
  6
Continuous
 62
     1
370
    25
100
AcDbPolyline
 90
       59
 70
   128
 43
0.0
 10
259.2260678774
 20
50.1474503323
 10
259.6532212276
 20
49.8158739989
 10
260.4204056383
 20
49.1303536187
 10
261.1344952956
 20
48.368631196
 10
261.7934660345
 20
47.5328659159
 10
262.3954499311
 20
46.6254268458
 10
262.9387405965
 20
45.6488862203
 10
263.4217980144
 20
44.60601215
 10
263.8432529059
 20
43.4997607747
 10
264.2019106115
 20
42.3332678841
 10
264.4967544768
 20
41.1098400291
 10
264.7269487349
 20
39.8329451488
 10
264.8918408752
 20
38.5062027405
 10
264.990963493
 20
37.1333735997
 10
265.0240356144
 20
35.7183491598
 10
264.990963493
 20
34.2651404612
 10
264.8918408752
 20
32.777866782
 10
264.7269487349
 20
31.2607439609
 10
264.4967544768
 20
29.7180724474
 10
264.2019106115
 20
28.1542251115
 10
263.8432529059
 20
26.5736348484
 10
263.4217980144
 20
24.9807820129
 10
262.9387405965
 20
23.3801817195
 10
262.3954499311
 20
21.7763710436
 10
261.7934660345
 20
20.1738961607
 10
261.1344952956
 20
18.5772994601
 10
260.4204056383
 20
16.9911066686
 10
259.6532212276
 20
15.4198140219
 10
258.8351167309
 20
13.8678755197
 10
257.9684111542
 20
12.3396903005
 10
257.0555612689
 20
10.8395901712
 10
256.0991546469
 20
9.3718273286
 10
255.1019023268
 20
7.9405623059
 10
254.0666311287
 20
6.5498521794
 10
252.9962756412
 20
5.2036390681
 10
251.8938699033
 20
3.9057389591
 10
250.7625388037
 20
2.6598308915
 10
249.6054892235
 20
1.469446527
 10
248.4260009453
 20
0.3379601393
 10
247.2274173568
 20
-0.7314209503
 10
246.0131359735
 20
-1.735665465
 10
244.7865988077
 20
-2.6719267647
 10
243.5512826125
 20
-3.537550915
 10
242.3106890257
 20
-4.33008421
 10
241.0683346447
 20
-5.0472801283
 10
239.827741058
 20
-5.6871056998
 10
238.5924248627
 20
-6.2477472697
 10
237.365887697
 20
-6.7276156384
 10
236.1516063137
 20
-7.1253505669
 10
234.9530227252
 20
-7.4398246323
 10
233.773534447
 20
-7.6701464238
 10
232.6164848667
 20
-7.8156630692
 10
231.4851537672
 20
-7.8759620857
 10
230.3827480292
 20
-7.8508725492
 10
229.3123925418
 20
-7.7404655789
 10
228.2771213436
 20
-7.5450541351
 10
227.2798690236
 20
-7.2651921329
 10
226.3234624016
 20
-6.9016728715
 10
226.2580260282
 20
-6.8730798238
  0
LWPOLYLINE
  5
127
330
1F
100
AcDbEntity
  8
0
  6
Continuous
 62
     1
370
    25
100
AcDbPolyline
 90
       61
 70
   128
 43
0.0
 10
302.6710304272
 20
25.1478195835
 10
303.3179762344
 20
24.7438409649
 10
304.1360807311
 20
24.1364658091
 10
304.9032651419
 20
23.4509454289
 10
305.6173547991
 20
22.6892230062
 10
306.2763255381
 20
21.8534577261
 10
306.8783094346
 20
20.946018656
 10
307.4216001001
 20
19.9694780305
 10
307.9046575179
 20
18.9266039602
 10
308.3261124094
 20
17.8203525849
 10
308.684770115
 20
16.6538596943
 10
308.9796139803
 20
15.4304318393
 10
309.2098082384
 20
14.153536959
 10
309.3747003787
 20
12.8267945507
 10
309.4738229965
 20
11.4539654099
 10
309.5068951179
 20
10.03894097
 10
309.4738229965
 20
8.5857322714
 10
309.3747003787
 20
7.0984585922
 10
309.2098082384
 20
5.5813357711
 10
308.9796139803
 20
4.0386642575
 10
308.684770115
 20
2.4748169217
 10
308.3261124094
 20
0.8942266586
 10
307.9046575179
 20
-0.6986261769
 10
307.4216001001
 20
-2.2992264703
 10
306.8783094346
 20
-3.9030371462
 10
306.2763255381
 20
-5.5055120291
 10
305.6173547991
 20
-7.1021087297
 10
304.9032651419
 20
-8.6883015213
 10
304.1360807311
 20
-10.2595941679
 10
303.3179762344
 20
-11.8115326701
 10
302.4512706578
 20
-13.3397178893
 10
301.5384207724
 20
-14.8398180186
 10
300.5820141504
 20
-16.3075808612
 10
299.5847618304
 20
-17.7388458839
 10
298.5494906322
 20
-19.1295560104
 10
297.4791351447
 20
-20.4757691217
 10
296.3767294068
 20
-21.7736692307
 10
295.2453983072
 20
-23.0195772983
 10
294.088348727
 20
-24.2099616628
 10
292.9088604488
 20
-25.3414480505
 10
291.7102768603
 20
-26.4108291401
 10
290.495995477
 20
-27.4150736549
 10
289.2694583112
 20
-28.3513349545
 10
288.034142116
 20
-29.2169591048
 10
286.7935485292
 20
-30.0094923998
 10
285.5511941482
 20
-30.7266883181
 10
284.3106005615
 20
-31.3665138896
 10
283.0752843662
 20
-31.9271554595
 10
281.8487472005
 20
-32.4070238282
 10
280.6344658172
 20
-32.8047587567
 10
279.4358822287
 20
-33.1192328221
 10
278.2563939505
 20
-33.3495546136
 10
277.0993443703
 20
-33.495071259
 10
275.9680132707
 20
-33.5553702755
 10
274.8656075328
 20
-33.530280739
 10
273.7952520453
 20
-33.4198737687
 10
272.7599808471
 20
-33.2244623249
 10
271.7627285271
 20
-32.9446003227
 10
270.8063219051
 20
-32.5810810613
 10
269.8934720197
 20
-32.1349349756
 10
269.6737122503
 20
-32.0114053337
  0
ENDSEC
  0
SECTION
  2
OBJECTS
  0
DICTIONARY
  5
C
330
0
100
AcDbDictionary
281
     1
  3
ACAD_GROUP
350
D
  3
ACAD_LAYOUT
350
1A
  3
ACAD_MLINESTYLE
350
17
  3
ACAD_PLOTSETTINGS
350
19
  3
ACAD_PLOTSTYLENAME
350
E
  3
ACAD_SCALELIST
350
47
  3
DWGPROPS
350
128
  0
DICTIONARY
  5
D
102
{ACAD_REACTORS
330
C
102
}
330
C
100
AcDbDictionary
281
     1
  0
DICTIONARY
  5
1A
102
{ACAD_REACTORS
330
C
102
}
330
C
100
AcDbDictionary
281
     1
  3
Layout1
350
1E
  3
Layout2
350
26
  3
Model
350
22
  0
DICTIONARY
  5
17
102
{ACAD_REACTORS
330
C
102
}
330
C
100
AcDbDictionary
281
     1
  3
Standard
350
18
  0
DICTIONARY
  5
19
102
{ACAD_REACTORS
330
C
102
}
330
C
100
AcDbDictionary
281
     1
  0
ACDBDICTIONARYWDFLT
  5
E
102
{ACAD_REACTORS
330
C
102
}
330
C
100
AcDbDictionary
281
     1
  3
Normal
350
F
100
AcDbDictionaryWithDefault
340
F
  0
DICTIONARY
  5
47
102
{ACAD_REACTORS
330
C
102
}
330
C
100
AcDbDictionary
281
     1
  3
A0
350
48
  3
A1
350
49
  3
A2
350
4A
  3
A3
350
4B
  3
A4
350
4C
  3
A5
350
4D
  3
A6
350
4E
  3
A7
350
4F
  3
A8
350
50
  3
A9
350
51
  3
B0
350
52
  3
B1
350
53
  3
B2
350
54
  3
B3
350
55
  3
B4
350
56
  3
B5
350
57
  3
B6
350
58
  3
B7
350
59
  3
B8
350
5A
  3
B9
350
5B
  3
C0
350
5C
  3
C1
350
5D
  3
C2
350
5E
  3
C3
350
5F
  3
C4
350
60
  3
C5
350
61
  3
C6
350
62
  3
C7
350
63
  3
C8
350
64
  3
C9
350
65
  3
D0
350
66
  3
D1
350
67
  3
D2
350
68
  0
XRECORD
  5
128
102
{ACAD_REACTORS
330
C
102
}
330
C
100
AcDbXrecord
280
     1
  1
DWGPROPS COOKIE
  2

  3

  4

  6

  7

  8
b.kav
  9

300
=
301
=
302
=
303
=
304
=
305
=
306
=
307
=
308
=
309
=
 40
0.0
 41
2460745.521895509
 42
2460745.521895798
  1

 90
        0
  0
LAYOUT
  5
1E
102
{ACAD_REACTORS
330
1A
102
}
330
1A
100
AcDbPlotSettings
  1

  2
none_device
  4

  6

 40
0.0
 41
0.0
 42
0.0
 43
0.0
 44
0.0
 45
0.0
 46
0.0
 47
0.0
 48
0.0
 49
0.0
140
0.0
141
0.0
142
1.0
143
1.0
 70
   688
 72
     1
 73
     0
 74
     5
  7

 75
    16
147
1.0
148
0.0
149
0.0
100
AcDbLayout
  1
Layout1
 70
     1
 71
     1
 10
0.0
 20
0.0
 11
420.0
 21
297.0
 12
0.0
 22
0.0
 32
0.0
 14
1.0000000000E+20
 24
1.0000000000E+20
 34
1.0000000000E+20
 15
-1.0000000000E+20
 25
-1.0000000000E+20
 35
-1.0000000000E+20
146
0.0
 13
0.0
 23
0.0
 33
0.0
 16
1.0
 26
0.0
 36
0.0
 17
0.0
 27
1.0
 37
0.0
 76
     0
330
1B
  0
LAYOUT
  5
26
102
{ACAD_REACTORS
330
1A
102
}
330
1A
100
AcDbPlotSettings
  1

  2
none_device
  4

  6

 40
0.0
 41
0.0
 42
0.0
 43
0.0
 44
0.0
 45
0.0
 46
0.0
 47
0.0
 48
0.0
 49
0.0
140
0.0
141
0.0
142
1.0
143
1.0
 70
   688
 72
     1
 73
     0
 74
     5
  7

 75
    16
147
1.0
148
0.0
149
0.0
100
AcDbLayout
  1
Layout2
 70
     1
 71
     2
 10
0.0
 20
0.0
 11
0.0
 21
0.0
 12
0.0
 22
0.0
 32
0.0
 14
0.0
 24
0.0
 34
0.0
 15
0.0
 25
0.0
 35
0.0
146
0.0
 13
0.0
 23
0.0
 33
0.0
 16
1.0
 26
0.0
 36
0.0
 17
0.0
 27
1.0
 37
0.0
 76
     0
330
23
  0
LAYOUT
  5
22
102
{ACAD_REACTORS
330
1A
102
}
330
1A
100
AcDbPlotSettings
  1

  2
none_device
  4
Letter_(8.50_x_11.00_Inches)
  6

 40
6.35
 41
6.35
 42
6.35000508
 43
6.35000508
 44
215.9
 45
279.4
 46
0.0
 47
0.0
 48
0.0
 49
0.0
140
0.0
141
0.0
142
1.0
143
1.0
 70
  1712
 72
     1
 73
     0
 74
     0
  7

 75
     0
147
1.0
148
0.0
149
0.0
100
AcDbLayout
  1
Model
 70
     1
 71
     0
 10
0.0
 20
0.0
 11
279.4
 21
215.9
 12
0.0
 22
0.0
 32
0.0
 14
0.0
 24
0.0
 34
0.0
 15
279.4
 25
215.9
 35
0.0
146
0.0
 13
0.0
 23
0.0
 33
0.0
 16
1.0
 26
0.0
 36
0.0
 17
0.0
 27
1.0
 37
0.0
 76
     0
330
1F
331
29
  0
MLINESTYLE
  5
18
102
{ACAD_REACTORS
330
17
102
}
330
17
100
AcDbMlineStyle
  2
Standard
 70
     0
  3

 62
   256
 51
90.0
 52
90.0
 71
     2
 49
0.5
 62
   256
  6
BYLAYER
 49
-0.5
 62
   256
  6
BYLAYER
  0
ACDBPLACEHOLDER
  5
F
102
{ACAD_REACTORS
330
E
102
}
330
E
  0
SCALE
  5
48
102
{ACAD_REACTORS
330
47
102
}
330
47
100
AcDbScale
 70
     0
300
1:1
140
1.0
141
1.0
290
     1
  0
SCALE
  5
49
102
{ACAD_REACTORS
330
47
102
}
330
47
100
AcDbScale
 70
     0
300
1:2
140
1.0
141
2.0
290
     0
  0
SCALE
  5
4A
102
{ACAD_REACTORS
330
47
102
}
330
47
100
AcDbScale
 70
     0
300
1:4
140
1.0
141
4.0
290
     0
  0
SCALE
  5
4B
102
{ACAD_REACTORS
330
47
102
}
330
47
100
AcDbScale
 70
     0
300
1:5
140
1.0
141
5.0
290
     0
  0
SCALE
  5
4C
102
{ACAD_REACTORS
330
47
102
}
330
47
100
AcDbScale
 70
     0
300
1:8
140
1.0
141
8.0
290
     0
  0
SCALE
  5
4D
102
{ACAD_REACTORS
330
47
102
}
330
47
100
AcDbScale
 70
     0
300
1:10
140
1.0
141
10.0
290
     0
  0
SCALE
  5
4E
102
{ACAD_REACTORS
330
47
102
}
330
47
100
AcDbScale
 70
     0
300
1:16
140
1.0
141
16.0
290
     0
  0
SCALE
  5
4F
102
{ACAD_REACTORS
330
47
102
}
330
47
100
AcDbScale
 70
     0
300
1:20
140
1.0
141
20.0
290
     0
  0
SCALE
  5
50
102
{ACAD_REACTORS
330
47
102
}
330
47
100
AcDbScale
 70
     0
300
1:30
140
1.0
141
30.0
290
     0
  0
SCALE
  5
51
102
{ACAD_REACTORS
330
47
102
}
330
47
100
AcDbScale
 70
     0
300
1:40
140
1.0
141
40.0
290
     0
  0
SCALE
  5
52
102
{ACAD_REACTORS
330
47
102
}
330
47
100
AcDbScale
 70
     0
300
1:50
140
1.0
141
50.0
290
     0
  0
SCALE
  5
53
102
{ACAD_REACTORS
330
47
102
}
330
47
100
AcDbScale
 70
     0
300
1:100
140
1.0
141
100.0
290
     0
  0
SCALE
  5
54
102
{ACAD_REACTORS
330
47
102
}
330
47
100
AcDbScale
 70
     0
300
2:1
140
2.0
141
1.0
290
     0
  0
SCALE
  5
55
102
{ACAD_REACTORS
330
47
102
}
330
47
100
AcDbScale
 70
     0
300
4:1
140
4.0
141
1.0
290
     0
  0
SCALE
  5
56
102
{ACAD_REACTORS
330
47
102
}
330
47
100
AcDbScale
 70
     0
300
8:1
140
8.0
141
1.0
290
     0
  0
SCALE
  5
57
102
{ACAD_REACTORS
330
47
102
}
330
47
100
AcDbScale
 70
     0
300
10:1
140
10.0
141
1.0
290
     0
  0
SCALE
  5
58
102
{ACAD_REACTORS
330
47
102
}
330
47
100
AcDbScale
 70
     0
300
100:1
140
100.0
141
1.0
290
     0
  0
SCALE
  5
59
102
{ACAD_REACTORS
330
47
102
}
330
47
100
AcDbScale
 70
     0
300
1/128" = 1'-0"
140
0.0078125
141
12.0
290
     0
  0
SCALE
  5
5A
102
{ACAD_REACTORS
330
47
102
}
330
47
100
AcDbScale
 70
     0
300
1/64" = 1'-0"
140
0.015625
141
12.0
290
     0
  0
SCALE
  5
5B
102
{ACAD_REACTORS
330
47
102
}
330
47
100
AcDbScale
 70
     0
300
1/32" = 1'-0"
140
0.03125
141
12.0
290
     0
  0
SCALE
  5
5C
102
{ACAD_REACTORS
330
47
102
}
330
47
100
AcDbScale
 70
     0
300
1/16" = 1'-0"
140
0.0625
141
12.0
290
     0
  0
SCALE
  5
5D
102
{ACAD_REACTORS
330
47
102
}
330
47
100
AcDbScale
 70
     0
300
3/32" = 1'-0"
140
0.09375
141
12.0
290
     0
  0
SCALE
  5
5E
102
{ACAD_REACTORS
330
47
102
}
330
47
100
AcDbScale
 70
     0
300
1/8" = 1'-0"
140
0.125
141
12.0
290
     0
  0
SCALE
  5
5F
102
{ACAD_REACTORS
330
47
102
}
330
47
100
AcDbScale
 70
     0
300
3/16" = 1'-0"
140
0.1875
141
12.0
290
     0
  0
SCALE
  5
60
102
{ACAD_REACTORS
330
47
102
}
330
47
100
AcDbScale
 70
     0
300
1/4" = 1'-0"
140
0.25
141
12.0
290
     0
  0
SCALE
  5
61
102
{ACAD_REACTORS
330
47
102
}
330
47
100
AcDbScale
 70
     0
300
3/8" = 1'-0"
140
0.375
141
12.0
290
     0
  0
SCALE
  5
62
102
{ACAD_REACTORS
330
47
102
}
330
47
100
AcDbScale
 70
     0
300
1/2" = 1'-0"
140
0.5
141
12.0
290
     0
  0
SCALE
  5
63
102
{ACAD_REACTORS
330
47
102
}
330
47
100
AcDbScale
 70
     0
300
3/4" = 1'-0"
140
0.75
141
12.0
290
     0
  0
SCALE
  5
64
102
{ACAD_REACTORS
330
47
102
}
330
47
100
AcDbScale
 70
     0
300
1" = 1'-0"
140
1.0
141
12.0
290
     0
  0
SCALE
  5
65
102
{ACAD_REACTORS
330
47
102
}
330
47
100
AcDbScale
 70
     0
300
1-1/2" = 1'-0"
140
1.5
141
12.0
290
     0
  0
SCALE
  5
66
102
{ACAD_REACTORS
330
47
102
}
330
47
100
AcDbScale
 70
     0
300
3" = 1'-0"
140
3.0
141
12.0
290
     0
  0
SCALE
  5
67
102
{ACAD_REACTORS
330
47
102
}
330
47
100
AcDbScale
 70
     0
300
6" = 1'-0"
140
6.0
141
12.0
290
     0
  0
SCALE
  5
68
102
{ACAD_REACTORS
330
47
102
}
330
47
100
AcDbScale
 70
     0
300
1'-0" = 1'-0"
140
12.0
141
12.0
290
     0
  0
ENDSEC
  0
EOF
